Oops, an error
Loading. Please wait.

Cowboy Bebop - Tank tab

version 1
version 1

Whole song

Interactive

751 views 33 this week
2 commentsread comments
1 2 3 4 5
x 4
add to favorites
×
Save as Personal and add changes to this tab that will be seen only by you. Learn more ›
×
You can save this tab as Personal to edit and correct it or add notes. All changes will be seen only by you. Learn more »
launch autoscroll
font size
0
reset
how to read this tab
guitar tuner
edit
Autoscroll
slow
fast
+/-
esc
set tempo
stop
Author
Difficulty
newg [tm] 49,829
intermediate
----------------------------------------------------------------------------------------------------
                                    Cowboy Bebop - Tank!
----------------------------------------------------------------------------------------------------

Album : OST 
Tempo : 135
E-mail: gwendal.mollo@orange.fr
Tabbed by: newg    (http://profile.ultimate-guitar.com/newg/)


[Intro]

e|----------------------------------------------------|-------|
B|--1--1-----1--1-----1--1-----1--1-----3-----4-------|-------|
G|----------------------------------------------------|-------|
D|----------------------------------------------------|-------|
A|----------------------------------------------------|-------|
E|----------------------------------------------------|-------|


 (Bass)
e|----------------------------------------------------|
B|----------------------------------------------------|
G|----------------------------------------------------|
D|-----------5--------4-----3--------1-----1----------| 
A|--3-----------------------------------------1-------|
E|----------------------------------------------------| x6

Part A :
e|----------------------------------------------------|----------------| 
B|----------------------------------------------------|----------------| 
G|----------------------------------------------------|----------------| 
D|-----5--------4--------1----------------------------|----------------| 
A|--3--------3--------3--------3--1-----------3L------|--3-------------| 
E|----------------------------------------------------|----------------| x2

e|----------------------------------------------------|----------------|
B|----------------------------------------------------|----------------|
G|-----5--------4--------1----------------------------|----------------|
D|--3--------3--------3--------3--1-----------3L------|--3-------------|
A|----------------------------------------------------|----------------|
E|----------------------------------------------------|----------------| 

e|----------------------------------------------------|----------------| 
B|----------------------------------------------------|----------------| 
G|----------------------------------------------------|----------------| 
D|-----5--------4--------1----------------------------|----------------| 
A|--3--------3--------3--------3--1-----------3L------|--3-------------| 
E|----------------------------------------------------|----------------| 

e|--------------------------------------------------|--------------------------------------------------|
B|--------------------------------------------------|--------------------------------------------------|
G|-----------0-----------------0--------------------|-----------2-----------------2--------------------|
D|--------------------------------------------------|--------------------------------------------------|
A|--------------------------------------------------|--------------------------------------------------|
E|--------------------------------------------------|--------------------------------------------------|

e|----------------------------------------------------|----------------------------|
B|----------------------------------------------------|-----------------0-----1L---|
G|----------------------------------------------------|--------1-----3-------------|
D|-----5--------4--------1----------------------------|----------------------------|
A|--3--------3--------3--------3--1-----------3-------|----------------------------|
E|----------------------------------------------------|----------------------------|

e|----------------------------------------------------|----------------------------------------------------|
B|--1L----------------------1-----------------1-------|--0-----------------0-------------------------------|
G|----------------------------------------------------|--------------------------3-----------------3-------|
D|----------------------------------------------------|----------------------------------------------------|
A|-----------------------------------3----------------|-----------3-----------------------3----------------|
E|----------------------------------------------------|----------------------------------------------------|

e|----------------------------------------------------|----------------------------|
B|----------------------------------------------------|----------------------------|
G|--0--1--0-----0-------------------------------------|--------------0--1--0-------|
D|-----------3----------------------------------------|-----------3-----------3----|
A|----------------------------------------------------|----------------------------|
E|----------------------------------------------------|----------------------------|

e|----------------------------------------------------|----------------|
B|----------------------------------------------------|----------------|
G|----------------------------------------------------|----------------|
D|--2-------------------------------------------------|--2-------------|
A|-----------3L----------------------3----------------|----------------|
E|----------------------------------------------------|-----------0----|

e|----------------------------------------------------|-------|
B|----------------------------------------------------|-------|
G|----------------------------------------------------|-------|
D|----------------------------------------------------|-------|
A|--0--------0----------------------------------------|-------|
E|--------------------------4--------4----------------|--3----|




Part B :
e|----------------------------------------------------|----------------| 
B|----------------------------------------------------|----------------| 
G|----------------------------------------------------|----------------| 
D|-----5--------4--------1----------------------------|----------------| 
A|--3--------3--------3--------3--1-----------3L------|--3-------------| 
E|----------------------------------------------------|----------------| x2

e|----------------------------------------------------|----------------|
B|----------------------------------------------------|----------------|
G|-----5--------4--------1----------------------------|----------------|
D|--3--------3--------3--------3--1-----------3L------|--3-------------|
A|----------------------------------------------------|----------------|
E|----------------------------------------------------|----------------| 

e|----------------------------------------------------|----------------| 
B|----------------------------------------------------|----------------| 
G|----------------------------------------------------|----------------| 
D|-----5--------4--------1----------------------------|----------------| 
A|--3--------3--------3--------3--1-----------3L------|--3-------------| 
E|----------------------------------------------------|----------------| 

e|--------------------------------------------------|--------------------------------------------------|
B|--------------------------------------------------|--------------------------------------------------|
G|-----------0-----------------0--------------------|-----------2-----------------2--------------------|
D|--------------------------------------------------|--------------------------------------------------|
A|--------------------------------------------------|--------------------------------------------------|
E|--------------------------------------------------|--------------------------------------------------|

e|----------------------------------------------------|
B|----------------------------------------------------|
G|-----------2-----------------2----------------------|
D|----------------------------------------------------|
A|----------------------------------------------------|
E|----------------------------------------------------| x2

e|----------------------------------------------------|
B|----------------------------------------------------|
G|--------0--0--------------2--2--------2-------------|
D|-----------------------------------------3--0-------|
A|-----------------------------------------------2----|
E|----------------------------------------------------|

e|----------------------------|----------------|
B|----------------------------|----------------|
G|----------------------------|----------------|
D|----------------------------|----------------|
A|----------------------------|----------------|
E|--3--------3L----------3L---|--3-------------| x2


e|----------------------------------------------------|----------------------------------------------------|
B|----------------------------------------------------|----------------------------------------------------|
G|----------------------------------------------------|----------------------------------------------------|
D|----------------------------------------------------|----------------------------------------------------|
A|--3--------2--------1L----------1--0----------------|----------------------------------------------------|
E|--------------------------------------------4L------|--4--------3--------2L----------2--1--------0-------|

[Outro]
e|--------8--8--8--8--8--8--8--8--8--8--10----8--8----|--8--8--10----8--8--8--8--11L-----------|
B|----------------------------------------------------|----------------------------------------|
G|----------------------------------------------------|----------------------------------------|
D|----------------------------------------------------|----------------------------------------|
A|----------------------------------------------------|----------------------------------------|
E|----------------------------------------------------|----------------------------------------|

e|--11----------------------2--1----------------------------------------------|
B|--------------------13----------4-----1-------------------------------------|
G|-----------------------------------------3----------------------------------|
D|--------------------------------------------4-----3--1----------------------|
A|-----------------------------------------------------------3--1-------------|
E|--------------------------------------------------------------------1L------|




            
            
Suggest correction
Creating personal tab
Creating personal tab
You can edit any tab online and save it as your Personal.

You can edit, replace or remove any tab part or add personal notes – all changes will be seen only by you.

Personal tabs can be accessed anytime from any device, even offline.
Learn more »
comments
print report bad tab
2 comments total.
0 reply
shaolimper 32 Sep 02, 2017 02:51 AM

What is L?

guest
You may want to rate the tab now too:
select rating
Wanna post a correction for this tab? Suggest correction