Oops, an error
Loading. Please wait.

Dead By Daylight - Survivor Theme tab

547 views 102 this week
1 commentread comment
1 2 3 4 5
2 more votes to show rating
add to favorites
×
Save as Personal and add changes to this tab that will be seen only by you. Learn more ›
×
You can save this tab as Personal to edit and correct it or add notes. All changes will be seen only by you. Learn more »
launch autoscroll
font size
0
reset
how to read this tab
guitar tuner
edit
Autoscroll
slow
fast
+/-
esc
set tempo
stop
About this tab version
It's the only tab currently that includes the lead part of the song. Was this info helpful? Yes No
This is my first tab, so please give me feedback. I have this tuned in 1/2 step down, 
but you can compensate
in standard. I'm playing on an electric as well though, tell me if it sounds alright on acoustic.

e|------------------------------|
B|------------------------------|
G|-----------7----6--7--4-------|
D|-----------7----6--7--4-------|
A|-----------5----4--5--2-------|
E|------------------------------|

[1st Fill]
e|------------|
B|------------|
G|--6----11---|
D|--6----11---|
A|--4----9----|
E|------------|

e|-----------------|
B|-----------------|
G|-7---6---7--4-/--|
D|-7---6---7--4-/--|
A|-5---4---5--2-/--|
E|-----------------|

e|---------------------------------------------------------------------------|
B|---------------------------------------------------------------------------|
G|--7----6---7--6------------------------------------------------------------|
D|--7----6---7--6------------------------------------------------------------|
A|--5----4---5--4------------------------------------------------------------|
E|---------------------------------------------------------------------------|

     2nd fill
e|---------------------------------------------------------------------------|
B|---------------------------------------------------------------------------|
G|---------------------------------------------------------------------------|
D|----7-6--11----------------------------------------------------------------|
A|----5-4--9-----------------------------------------------------------------|
E|---------------------------------------------------------------------------|

    3rd fill
e|---------------------------------------------------------------------------|
B|---------------------------------------------------------------------------|
G|---------------------------------------------------------------------------|
D|---------------------------------------------------------------------------|
A|---9-----------------------------------------------------------------------|
E|---------------------------------------------------------------------------|

************************************

| /  Slide up

************************************

            
            
Suggest correction
Creating personal tab
Creating personal tab
You can edit any tab online and save it as your Personal.

You can edit, replace or remove any tab part or add personal notes – all changes will be seen only by you.

Personal tabs can be accessed anytime from any device, even offline.
Learn more »
Give kudos to tab author, rate the tab!
1 2 3 4 5
comments
print report bad tab
1 comment total.
0 reply
codestar75 10 6 days ago

Nice tab! Since he's tuned half a step down, to play in standard you only need to play one fret down. Accurate tab!

guest
You may want to rate the tab now too:
select rating
Wanna post a correction for this tab? Suggest correction