Oops, an error
Loading. Please wait.

Disaster Movie - Im Dating Matt Damon Bass Tab

1,537 views 1 this week
no commentswrite comment
1 2 3 4 5
please rate
add to favorites
launch autoscroll
font size
0
reset
guitar tuner
Autoscroll
slow
fast
+/-
esc
set tempo
stop
Help us to improve Ultimate-Guitar.com Take our survey!
×
Difficulty
novice
Intro:
---------------------|
---------------------|
------3-3-----3-3----|
--3-3-----3-3--------|

Riff 1:

---------------------|
---------------------|
----2-3-0------------|
--3------------------|

Riff 2:

---------------------|
----0-2--------------|
--------3------------|
--3------------------|
Suggest correction
Give kudos to tab author, rate the tab!
1 2 3 4 5
comments
print report bad tab
guest
You may want to rate the tab now too:
select rating
Wanna post a correction for this tab? Suggest correction