Oops, an error
Loading. Please wait.

Django Unchained - Freedom Tab

version 1
version 1

Whole song

Interactive

8,116 views 6 this week
no commentswrite comment
1 2 3 4 5
please rate
add to favorites
launch autoscroll
font size
0
reset
how to read this tab
guitar tuner
Autoscroll
slow
fast
+/-
esc
set tempo
stop
Help us to improve Ultimate-Guitar.com Take our survey!
×
Freedom - Anthony Hamilton
Also in Django Unchained OST

110 Bpm

You need to play it in palm mute, enjoy :

Intro

E |----------------------------|----------------------------|
B |----------------------------|----------------------------|
G |--6--6--6--6--6--6--6--6----|--6--6--6--6--6--6--6--6----|
D |--6--6--6--6--6--6--6--6----|--6--6--6--6--6--6--6--6----|
A |--4--4--4--4--4--4--4--4----|--4--4--4--4--4--4--4--4----|
E |----------------------------|----------------------------|


----------------------------|----------------------------|
----------------------------|----------------------------|
----------------------------|----------------------------|
--7--7--7--7--7--7--7--7----|--7--7--7--7--7--7--7--7----|
--7--7--7--7--7--7--7--7----|--7--7--7--7--7--7--7--7----|
--5--5--5--5--5--5--5--5----|--5--5--5--5--5--5--5--5----|


----------------------------|----------------------------|
----------------------------|----------------------------|
--6--6--6--6--6--6--6--6----|--6--6--6--6--6--6--6--6----|
--6--6--6--6--6--6--6--6----|--6--6--6--6--6--6--6--6----|
--4--4--4--4--4--4--4--4----|--4--4--4--4--4--4--4--4----|
----------------------------|----------------------------|


----------------------------|----------------------------|
----------------------------|----------------------------|
----------------------------|----------------------------|
--7--7--7--7--7--7--7--7----|--7--7--7--7--7--7--7--7----|
--7--7--7--7--7--7--7--7----|--7--7--7--7--7--7--7--7----|
--5--5--5--5--5--5--5--5----|--5--5--5--5--5--5--5--5----|


Verse

----------------------------|----------------------------|
----------------------------|----------------------------|
--6--6--6--6--6--6--6--6----|--6--6--6--6--6--6--6--6----|
--6--6--6--6--6--6--6--6----|--6--6--6--6--6--6--6--6----|
--4--4--4--4--4--4--4--4----|--4--4--4--4--4--4--4--4----|
----------------------------|----------------------------|


----------------------------|----------------------------|
----------------------------|----------------------------|
--9--9--9--9--9--9--9--9----|----------------------------|
--9--9--9--9--9--9--9--9----|--6--6--6--6--6--6--6--6----|
--7--7--7--7--7--7--7--7----|--6--6--6--6--6--6--6--6----|
----------------------------|--4--4--4--4--4--4--4--4----|


----------------------------|----------------------------|
----------------------------|----------------------------|
--6--6--6--6--6--6--6--6----|--6--6--6--6--6--6--6--6----|
--6--6--6--6--6--6--6--6----|--6--6--6--6--6--6--6--6----|
--4--4--4--4--4--4--4--4----|--4--4--4--4--4--4--4--4----|
----------------------------|----------------------------|


----------------------------|----------------------------|
----------------------------|----------------------------|
----------------------------|----------------------------|
--7--7--7--7--7--7--7--7----|--7--7--7--7--7--7--7--7----|
--7--7--7--7--7--7--7--7----|--7--7--7--7--7--7--7--7----|
--5--5--5--5--5--5--5--5----|--5--5--5--5--5--5--5--5----|


----------------------------|----------------------------|
----------------------------|----------------------------|
--6--6--6--6--6--6--6--6----|--3--3--3--3--3--3--3--3----|
--6--6--6--6--6--6--6--6----|--4--4--4--4--4--4--4--4----|
--4--4--4--4--4--4--4--4----|--4--4--4--4--4--4--4--4----|
----------------------------|--2--2--2--2--2--2--2--2----|


----------------------------|----------------------------|
----------------------------|----------------------------|
--9--9--9--9--9--9--9--9----|----------------------------|
--9--9--9--9--9--9--9--9----|--6--6--6--6--6--6--6--6----|
--7--7--7--7--7--7--7--7----|--6--6--6--6--6--6--6--6----|
----------------------------|--4--4--4--4--4--4--4--4----|

Chorus :

----------------------------|----------------------------|
----------------------------|----------------------------|
--6--6--6--6--6--6--6--6----|--6--6--6--6--6--6--6--6----|
--6--6--6--6--6--6--6--6----|--6--6--6--6--6--6--6--6----|
--4--4--4--4--4--4--4--4----|--4--4--4--4--4--4--4--4----|
----------------------------|----------------------------|


----------------------------|----------------------------|
----------------------------|----------------------------|
----------------------------|----------------------------|
--7--7--7--7--7--7--7--7----|--7--7--7--7--7--7--7--7----|
--7--7--7--7--7--7--7--7----|--7--7--7--7--7--7--7--7----|
--5--5--5--5--5--5--5--5----|--5--5--5--5--5--5--5--5----|


----------------------------|----------------------------|
----------------------------|----------------------------|
--4--4--4--4--4--4--4--4----|--4--4--4--4--4--4--4--4----|
--4--4--4--4--4--4--4--4----|--4--4--4--4--4--4--4--4----|
--2--2--2--2--2--2--2--2----|--2--2--2--2--2--2--2--2----|
----------------------------|----------------------------|


----------------------------|----------------------------|
----------------------------|----------------------------|
--6--6--6--6--6--6--6--6----|----------------------------|
--6--6--6--6--6--6--6--6----|--6--6--6--6--6--6--6--6----|
--4--4--4--4--4--4--4--4----|--6--6--6--6--6--6--6--6----|
----------------------------|--4--4--4--4--4--4--4--4----|


----------------------------|----------------------------|
----------------------------|----------------------------|
--6--6--6--6--6--6--6--6----|--6--6--6--6--6--6--6--6----|
--6--6--6--6--6--6--6--6----|--6--6--6--6--6--6--6--6----|
--4--4--4--4--4--4--4--4----|--4--4--4--4--4--4--4--4----|
----------------------------|----------------------------|


----------------------------|----------------------------|
----------------------------|----------------------------|
----------------------------|----------------------------|
--7--7--7--7--7--7--7--7----|--7--7--7--7--7--7--7--7----|
--7--7--7--7--7--7--7--7----|--7--7--7--7--7--7--7--7----|
--5--5--5--5--5--5--5--5----|--5--5--5--5--5--5--5--5----|


----------------------------|------|||
----------------------------|------|||
--4--4--4--4--4--4--4--4----|-----o|||
--4--4--4--4--4--4--4--4----|-----o|||
--2--2--2--2--2--2--2--2----|------|||
----------------------------|------|||
Suggest correction
Give kudos to tab author, rate the tab!
1 2 3 4 5
comments
print report bad tab
guest
You may want to rate the tab now too:
select rating
Wanna post a correction for this tab? Suggest correction