Oops, an error
Loading. Please wait.

Doomsday - Doctor Who Tab

20,974 views 18 this week
4 commentsread comments
1 2 3 4 5
x 8
add to favorites
launch autoscroll
font size
0
reset
how to read this tab
guitar tuner
Autoscroll
slow
fast
+/-
esc
set tempo
stop
Help us to improve Ultimate-Guitar.com Take our survey!
×
Author
Difficulty
Tuning
novice
D A D G B E
---------------------------------------------------------------------------
         Doomsday – Doctor Who (Composer: Murray Gold)/BBC
---------------------------------------------------------------------------

Tabbed By : DrSin
e-mail: Drsin13@hotmail.co.uk

Tuning: Drop D

G|------------------------------------------------------------------------|
D|------------------------------------------------------------------------|
A|------------------------------------------------------------------------|
D|-3-3-3-3-3-3-3-3-3-3-3-3-3-3-3-3-6-6-6-6-6-6-6-6-6-6-6-6-6-6-6-6-11-11--|

G|------------------------------------------------------------------------|
D|------------------------------------------------------------------------|
A|------------------------------------------------------------------------|
D|-11-11-11-11-11-11-11-11-11-11-11-11-11-11-8-8-8-8-8-8-8-8-10-10-10-10--|

G|------------------------------------------------------------------------|
D|------------------------------------------------------------------------|
A|------------------------------------------------------------------------|
D|-3-3-3-3-3-3-3-3-3-3-3-3-3-3-3-3-6-6-6-6-6-6-6-6-6-6-6-6-6-6-6-6-11-11--|

G|------------------------------------------------------------------------|
D|------------------------------------------------------------------------|
A|------------------------------------------------------------------------|
D|-11-11-11-11-11-11-11-11-11-11-11-11-11-11-8-8-8-8-8-8-8-8-10-10-10-10--|

G|------------------------------------------------------------------------|
D|------------------------------------------------------------------------|
A|------------------------------------------------------------------------|
D|-10-10-10-10-13-13-13-13-13-13-13-13-13-11-11-11-11-11-11-11-11-11-11-11

G|------------------------------------------------------------------------|
D|------------------------------------------------------------------------|
A|------------------------------------------------------------------------|
D|-11-11-11-11-11-10-10-10-10-10-10-10-10-10-10-10-10-10-10-10-10-10-10-10|

G|------------------------------------------------------------------------|
D|------------------------------------------------------------------------|
A|------------------------------------------------------------------------|
D|-10-10-10-6-6-6-6-6-6-6-6-6-6-6-6-6-6-6-6-6-8-8-8-8-8-8-8-8-8-8-8-8-8-8-

G|------------------------------------------------------------------------|
D|------------------------------------------------------------------------|
A|------------------------------------------------------------------------|
D|-8-8-10 x44 (Easy to follow along to the track)


Repeated throughout the song, maybe not at such a regular beat at times though. 
Any Q’s, just ask :D
===========================================================================
Suggest correction
comments
print report bad tab
4 comments total. Showing first comments.
0 reply
dagamer5 73 Jul 15, 2009 05:25 AM

Great Tab! Helped me To Figure Out The Chords From The Song (:

0 reply
121990 10 Mar 20, 2012 06:16 AM

what are the chords?

+1 reply
sovaso 1,358 Apr 09, 2013 09:11 PM

Great tab. Doctor Who is amazing!
However the Drop D tuning is not necessary. Drop D tuning lowers the pitch of the E-string by one whole step. The lowest note you have is F. F is the first fret on the first string.
you can play the song like this

G|----------------------------------------------------------------------------|
D|----------------------------------------------------------------------------|
A|----------------------------------------------------------------------------|
E|-1-1-1-1-1-1-1-1-1-1-1-1-1-1-1-1-1-4-4-4-4-4-4-4-4-4-4-4-4-4-4-4-4-9-9------|
ect. It's ok to do it in drop D but it is not necessary
overall 5 stars! good job

guest
You may want to rate the tab now too:
select rating
Wanna post a correction for this tab? Suggest correction