Oops, an error
Loading. Please wait.

Fame - Try tab

55 views 1 this week
no commentswrite comment
1 2 3 4 5
3 more votes to show rating
add to favorites
×
Save as Personal and add changes to this tab that will be seen only by you. Learn more ›
×
You can save this tab as Personal to edit and correct it or add notes. All changes will be seen only by you. Learn more »
launch autoscroll
font size
0
reset
how to read this tab
guitar tuner
edit
Autoscroll
slow
fast
+/-
esc
set tempo
stop
[Intro]
  C      G      Am     E      F                    G
--------------------------------------------0--0---0----------------------------------|
--1--1---0--0---1--1---0--0---1--1---3--3---1--1---3--3-------------------------------|
--0--0---0--0---2--2---1--1---2--2---2--2-------------0-------------------------------|
------------------------------3----3-3----3-3----3------------------------------------|
--3----3--------0--0-0----------------------------------------------------------------|
---------3----3--------0----0----------------------3----------------------------------|


[Verse 1]
  C      G      Am     E      F                    G
--------------------------------------------0--0---0----------------------------------|
--1--1---0--0---1--1---0--0---1--1---3--3---1--1---3--3-------------------------------|
--0--0---0--0---2--2---1--1---2--2---2--2-------------0-------------------------------|
------------------------------3----3-3----3-3----3------------------------------------|
--3----3--------0--0-0----------------------------------------------------------------|
---------3----3--------0----0----------------------3----------------------------------|

  C      G      Am     E      F      C      F      G
---------------------------------------------------0----------------------------------|
--1--1---0--0---1--1---0--0---1--1---1--1---1--1---3--3-------------------------------|
--0--0---0--0---2--2---1--1---2--2---0--0---2--2------0-------------------------------|
------------------------------3----3--------3----3------------------------------------|
--3----3--------0--0-0---------------3----3-------------------------------------------|
---------3----3--------0----0----------------------3----------------------------------|

[Bridge]
  F      G      C      E      F      G      C
--------------------------------------------------------------------------------------|
--1--1---0--0---1--1---0--0---1--1---0--0---1---0---1---3-----------------------------|
--2--2---0--0---0--0---1--1---2--2---0--0---0---0---0---0-----------------------------|
--3----3----------------------3----3--------------------------------------------------|
----------------3--2------------------------3-3---3---3---3---------------------------|
---------3----3--------0----0--------0----0-------------------------------------------|

  F      G      C      E      F             G
-------------------------------------1--1---------------------------------------------|
--1--1---0--0---1--1---0--0---1--1---1--1---0--0---0---0------------------------------|
--2--2---0--0---0--0---1--1---2--2----------0--0---0---0------------------------------|
--3----3----------------------3----3-------------0-0-0-0------------------------------|
----------------3--2-----------------------------2---2--------------------------------|
---------3----3--------0----0--------0------0----3---3--------------------------------|

[Chorus]
  Am              F               C               G
--3---3---3---3---0---0-----------0---0---0---0-------0---3---0------------------|
--1---1---1---1---1---1---3---3---1---1---1---1---3---3---0---3------------------|
--------------------------2---2-------------------0------------------------------|
------------------3-3---3---3---3------------------------------------------------|
--0-0---0---0---0-----------------3-3---3---3---3--------------------------------|
--------------------------------------------------3-3---3---3---3----------------|

  Am              F               C               G
--3---3---3---3---0---0-----------0---0---0---0-------0---3---0------------------|
--1---1---1---1---1---1---3---3---1---1---1---1---3---3---0---3------------------|
--------------------------2---2-------------------0------------------------------|
------------------3-3---3---3---3------------------------------------------------|
--0-0---0---0---0-----------------3-3---3---3---3--------------------------------|
--------------------------------------------------3-3---3---3---3----------------|


[Verse]
  C      G      Am     E      F                    G
--------------------------------------------0--0---0--------------------------------|
--1--1---0--0---1--1---0--0---1--1---3--3---1--1---3--3-----------------------------|
--0--0---0--0---2--2---1--1---2--2---2--2-------------0-----------------------------|
------------------------------3----3-3----3-3----3----------------------------------|
--3----3--------0--0-0--------------------------------------------------------------|
---------3----3--------0----0----------------------3--------------------------------|

  C      G      Am     E      F      C      F      G
---------------------------------------------------0----------------------------------|
--1--1---0--0---1--1---0--0---1--1---1--1---1--1---3--3-------------------------------|
--0--0---0--0---2--2---1--1---2--2---0--0---2--2------0-------------------------------|
------------------------------3----3--------3----3------------------------------------|
--3----3--------0--0-0---------------3----3-------------------------------------------|
---------3----3--------0----0----------------------3----------------------------------|

[Bridge]
  F      G      C      E      F      G      C
--------------------------------------------------------------------------------------|
--1--1---0--0---1--1---0--0---1--1---0--0---1---0---1---3-----------------------------|
--2--2---0--0---0--0---1--1---2--2---0--0---0---0---0---0-----------------------------|
--3----3----------------------3----3--------------------------------------------------|
----------------3--2------------------------3-3---3---3---3---------------------------|
---------3----3--------0----0--------0----0-------------------------------------------|

  F      G      C      E      F             G
-------------------------------------1--1-------------------------------------------|
--1--1---0--0---1--1---0--0---1--1---1--1---0--0---0---0----------------------------|
--2--2---0--0---0--0---1--1---2--2----------0--0---0---0----------------------------|
--3----3----------------------3----3-------------0-0-0-0----------------------------|
----------------3--2-----------------------------2---2------------------------------|
---------3----3--------0----0--------0------0----3---3------------------------------|

[Chorus]
  Am              F               C               G
--3---3---3---3---0---0-----------0---0---0---0-------0---3---0------------------|
--1---1---1---1---1---1---3---3---1---1---1---1---3---3---0---3------------------|
--------------------------2---2-------------------0------------------------------|
------------------3-3---3---3---3------------------------------------------------|
--0-0---0---0---0-----------------3-3---3---3---3--------------------------------|
--------------------------------------------------3-3---3---3---3----------------|

  Am              F               C               G
--3---3---3---3---0---0-----------0---0---0---0-------0---3---0------------------|
--1---1---1---1---1---1---3---3---1---1---1---1---3---3---0---3------------------|
--------------------------2---2-------------------0------------------------------|
------------------3-3---3---3---3------------------------------------------------|
--0-0---0---0---0-----------------3-3---3---3---3--------------------------------|
--------------------------------------------------3-3---3---3---3----------------|

  Am              F               C               G
--3---3---3---3---0---0-----------0---0---0---0-------0---3---0------------------|
--1---1---1---1---1---1---3---3---1---1---1---1---3---3---0---3------------------|
--------------------------2---2-------------------0------------------------------|
------------------3-3---3---3---3------------------------------------------------|
--0-0---0---0---0-----------------3-3---3---3---3--------------------------------|
--------------------------------------------------3-3---3---3---3----------------|

  Am              F               C               G
--3---3---3---3---0---0-----------0---0---0---0-------0---3---0------------------|
--1---1---1---1---1---1---3---3---1---1---1---1---3---3---0---3------------------|
--------------------------2---2-------------------0------------------------------|
------------------3-3---3---3---3------------------------------------------------| x2
--0-0---0---0---0-----------------3-3---3---3---3--------------------------------|
--------------------------------------------------3-3---3---3---3----------------|


  C            F            C            G            C
--------0------------1------------0------------3------0--------------------------|
--1-1-1---1----1-1-1---1----1-1-1---1----0-0-0---0----1--------------------------|
--0-0-0-----0--2-2-2-----2--0-0-0-----0--0-0-0-----0--0--------------------------|
---------------3--------------------------------------2--------------------------|
--3-------------------------3-------------------------3--------------------------|
-----------------------------------------3---------------------------------------|

            
            
Suggest correction
Creating personal tab
Creating personal tab
You can edit any tab online and save it as your Personal.

You can edit, replace or remove any tab part or add personal notes – all changes will be seen only by you.

Personal tabs can be accessed anytime from any device, even offline.
Learn more »
Give kudos to tab author, rate the tab!
1 2 3 4 5
comments
print report bad tab
guest
You may want to rate the tab now too:
select rating
Wanna post a correction for this tab? Suggest correction