Oops, an error
Loading. Please wait.

Forrest Gump Theme Tab

version 1
version 1

Intro

Interactive

52,260 views 30 this week
5 commentsread comments
1 2 3 4 5
x 44
add to favorites
×
Save as Personal and add changes to this tab that will be seen only by you. Learn more ›
×
You can save this tab as Personal to edit and correct it or add notes. All changes will be seen only by you. Learn more »
save as personal
new!
launch autoscroll
font size
0
reset
how to read this tab
guitar tuner
Autoscroll
slow
fast
+/-
esc
set tempo
stop
Author
Capo
2nd fret
This is the feather scene at the beginning. It was played in piano, but I got it to play 
guitar.  I play with electric... capo 2nd fret too.  It sounds okay if you don't so... 
not sure which.

[Intro]
e|--------------3-----------0-0---0-------0-0---0-5-2------------3----0-2-3-3-0-3-0-|
B|-0-1-3-3-0--3---3-0---1-3-----1-----1-3-----1-------3--0-1-3-3---3----------------|
G|----------------------------------------------------------------------------------|
D|----------------------------------------------------------------------------------|
A|----------------------------------------------------------------------------------|
E|----------------------------------------------------------------------------------|

e|3-0-----0-0---0-------0-0-------------|
B|----1-3-----1-----1-3-----1---0-1-----|
G|----------------------------2-----2-0-|
D|--------------------------------------|
A|--------------------------------------|
E|--------------------------------------|
Suggest correction
comments
print report bad tab
5 comments total. Showing first comments.
+2 reply
Allenmac 21 Apr 04, 2009 05:09 PM

great tab. it is second fret. you are brilliant

+1 reply
EvilGeek 25 May 07, 2014 03:56 AM

In the background there is this.

e|----------------|
B|--3---3---3---3-|
G|0---0---0---0---|
D|----------------|
A|----------------|
E|----------------|

0 reply
LedZeppelin1973 10 Jul 06, 2014 01:28 AM, edited at 05:28 am

Very nice tab! Love it, but the way I play goes like thise|-------------------|B|--3-3-3-3---3-3-3-3|G|0---------0--------|D|-------------------|A|-------------------|E|-------------------| x2
Then go on to the rest of the song. Excellent job putting the tab together. 5 stars

guest
You may want to rate the tab now too:
select rating
Wanna post a correction for this tab? Suggest correction