Oops, an error
Loading. Please wait.

Get Carter Theme Tab

3,832 views 6 this week
4 commentsread comments
1 2 3 4 5
x 3
add to favorites
×
Save as Personal and add changes to this tab that will be seen only by you. Learn more ›
×
You can save this tab as Personal to edit and correct it or add notes. All changes will be seen only by you. Learn more »
save as personal
new!
launch autoscroll
font size
0
reset
how to read this tab
guitar tuner
Autoscroll
slow
fast
+/-
esc
set tempo
stop
Author
---------------------------------------------------------
                             Get Carter - Roy Bud
-------------------------------------------------------------------------------
Tabbed by: Penno
Email:alexpenno@aol.com

Tuning: Normal

I add some vibratos and hammer-ons pull offs etc but i just improvise them so theres no 
in putting them in, just figure out for yourselfs where they go

Bass Line
e|---------------------------------------------------------------------------|
B|---------------------------------------------------------------------------|
G|---------------------------------------------------------------------------|
D|---------------------------------------------------------------------------|
A|---------------------------------------------------------------------------|
E|-----0----0--3--4--5------0--5--0--4--0--3---------------------------------|

Keyboard tune played over Bass line
e|--------------------------------0------------------------------------------|
B|-0--3-----2-------0--3-------------2---------0-----------------------------|
G|-------------2----------------------2---------0-----2----------------------|
D|------------------------------------------------------2----0--2------------|
A|---------------------------------------------------------------------------|
E|---------------------------------------------------------------------------|

PLease feel free to email me comments or suggestions or insults but no spam please
Suggest correction
Give kudos to tab author, rate the tab!
1 2 3 4 5
comments
print report bad tab
4 comments total. Showing first comments.
0 reply
Rain Man 20 Jun 10, 2008 10:57 AM

Thanks for posting this tab - I love that movie and was dying to have a go at the theme.

You asked for comments or suggestions so can I run this by you?

The keyboard bit is absolutely 100% to me but I can't help feeling that the bass line is off. Just put the DVD on to check and that seems to bear out my suspicion.

Instead of your:
A|---------------------------------------------------------------------------|
E|-----0----0--3--4--5------0--5--0--4--0--3---------------------------------|

please try:
A|-----0---------------------------------------------------------------------|
E|----------0--3--4--5------0--3--0--3--0--4---------------------------------|


I think that sounds closer to the way it is in the movie.

What do you think? Obviously feel free to say so if you don't agree.

0 reply
Chomalom 41 Sep 07, 2010 03:08 PM

I hear the bassy bit as:

A|---------------------------------------------------------------------------|
E|-----0----0--3--4--5------0--3--0--3--5------------------------------------|

Maybe thats just me?

But like Rain Man said, your keyboard sounds right to me too, though I play it higher up on the neck to get a thinner sound which I think matches with the soundtrack a little more, guess its personal preference.

0 reply
mrrogers890 10 Jun 16, 2011 12:19 PM

And now its my turn. I almost agree with Chomalom
I hear this and I think it sounds a little more funky and correct:

A|---------------------------------------------------------------------------|
E|-----0----0--3--4--5------0--3--0--4--5------------------------------------|

guest
You may want to rate the tab now too:
select rating
Wanna post a correction for this tab? Suggest correction