Oops, an error
Loading. Please wait.

Get Smart Theme Bass Tab

2,406 views 1 this week
no commentswrite comment
1 2 3 4 5
2 more votes to show rating
add to favorites
launch autoscroll
font size
0
reset
guitar tuner
Autoscroll
slow
fast
+/-
esc
set tempo
stop
Help us to improve Ultimate-Guitar.com Take our survey!
×
Author
Difficulty
G|-----0-1-0--------0-1-0------0-1-0-------------------|
D|---3--------4---3-------4--3-------4-----------------|
A|-----------------------------------------------------|
E|-----------------------------------------------------|

Or, you can play it lower

G|-----------------------------------------------------|
D|-----0-1-0--------0-1-0------0-1-0-------------------|
A|---3--------4---3-------4--3-------4-----------------|
E|-----------------------------------------------------|

The first one works better on a stand up bass, but the second sounds better on electric.
Suggest correction
Give kudos to tab author, rate the tab!
1 2 3 4 5
comments
print report bad tab
guest
You may want to rate the tab now too:
select rating
Wanna post a correction for this tab? Suggest correction