Oops, an error
Loading. Please wait.

Ghostbusters Theme Bass Tab

version 1
version 1

Whole song

Interactive

31,621 views 48 this week
3 commentsread comments
1 2 3 4 5
x 12
add to favorites
launch autoscroll
font size
0
reset
guitar tuner
Autoscroll
slow
fast
+/-
esc
set tempo
stop
Help us to improve Ultimate-Guitar.com Take our survey!
×
Author
Difficulty
  follow
intermediate
Artist: Misc Soundtrack
Song: Ghostbusters Theme
(The verse and chorus)

[Verse]
(the same rhythm through the verse) 
G|-------------------------------------------------|
D|-----------7-7-----------------7-7---------------|
A|------679-------7-7-------679-------7-7----------|
E|-7-7-----------------7-7-------------------------|

[Chorus]
G|------------------|------------------|
D|------------------|------------------|
A|------------------|------------------|
E|7~--------5~------|4~----------0~----|

************************************

| ~  Vibrato

************************************
Suggest correction
comments
print report bad tab
3 comments total.
+1 reply
Celtic_cross 10 Sep 30, 2009 07:23 AM

u're wrong, the main verse is -----------------------------
-----------77-66-------------
------679--------------------
--77------------------------- and then it continue in a different way, the real song is harder than your version, anyway continue this way and u'll be a good job

0 reply
Julien.boyer.Di 10 Oct 26, 2013 06:47 PM

hi,
the tab is ok,it'a a E at the end of the line .
i would juste to add some parts .
1st ) intro :Gliss on the A string and : B-G-F#-F-E-D-A#
2nd ) there are two bridges in the song .
1 - 2'00 ) B/A - A/B (X3) - B/A - B/D/E-E-E-E
2 - 2'32 ) F# and sometimes A, but you can stay on the F# it works .

Enjoy !

0 reply
Gapiro 30 Oct 26, 2014 02:33 PM

Actually Celtic Cross - it is
-----------77-66-------------
------569--------------------
--77-------------------------

guest
You may want to rate the tab now too:
select rating
Wanna post a correction for this tab? Suggest correction