Oops, an error
Loading. Please wait.

Godfather Theme Tab

version 2
version 2

Interactive

21,610 views 18 this week
3 commentsread comments
1 2 3 4 5
x 5
add to favorites
launch autoscroll
font size
0
reset
how to read this tab
guitar tuner
×
Best way to learn
"Godfather Theme"
Autoscroll
slow
fast
+/-
esc
set tempo
stop
This is the song from the godfather, in slash's way

 *Repeat once
e||---------------------------------|--------------------------------|
B||---15~----14-15-16~--15--15------|--15~----14-15-16~--15--15------|
G||*----------------------------15~-|----------------------------14~-|
D||*--------------------------------|--------------------------------|
A||---------------------------------|--------------------------------|
E||---------------------------------|--------------------------------|

e|------------------------------|---------------------------------||
B|--15~----14-15-18~--15--14----|--15r---------------14r----------||
G|------------------------------|------15--14--15----------14~---*||
D|------------------------------|--------------------------------*||
A|------------------------------|---------------------------------||
E|------------------------------|---------------------------------||

e||------10--13--12--10--13--10--12--|--10----------------------|
B||--10------------------------------|------11---13-10~---------|
G||----------------------------------|--------------------------|
D||----------------------------------|--------------------------|
A||----------------------------------|--------------------------|
E||----------------------------------|--------------------------|

e|--------13--12--10--13--10--12--|--10--------------------|
B|--10----------------------------|------10/---9-8---------|
G|--------------------------------|------------------------|
D|--------------------------------|------------------------|
A|--------------------------------|------------------------|
E|--------------------------------|------------------------|

e|------------------------|-----6--9--9r---------|
B|-----6--10--10r---------|--8-------------------|
G|--7---------------------|----------------------|
D|------------------------|----------------------|
A|------------------------|----------------------|
E|------------------------|----------------------|

e|------------------------------|------------------------|
B|----------13r-11--10--11------|--10--------------------|
G|------10----------------------|------------------------|
D|--12--------------------------|------11/-12~-----------|
A|------------------------------|------------------------|
E|------------------------------|------------------------|

e|--10--10--9--8----10/-12--10--|-----------------------------|
B|------------------------------|--11--10----10--13--10--8----|
G|------------------------------|-----------------------------|
D|------------------------------|-----------------------------|
A|------------------------------|-----------------------------|
E|------------------------------|-----------------------------|

e|------------------------10-|
B|--8--11--9--10~-----10-----|
G|---------------------------|
D|---------------------------|
A|---------------------------|
E|---------------------------|

e|-13-12-10--13-12-10--13-12-10-------------------------------------|
B|------------------------------12--12--12-12-10-12-10-9-10-12-10-9-|
G|------------------------------------------------------------------|
D|------------------------------------------------------------------|
A|------------------------------------------------------------------|
E|------------------------------------------------------------------|

e|-13-12-10-9-10-12-10-9----9-------------------------------------|
B|-----------------------10---10-12-10-9----9----12---------------|
G|---------------------------------------11---11----11-9----9-----|
D|-------------------------------------------------------11---11--|
A|----------------------------------------------------------------|
E|----------------------------------------------------------------|

e|-----------------------------9-10-------------------------------|
B|--------13-11-10-13-11-10-10------------------------------------|
G|-----10---------------------------------------------------------|
D|-/12------------------------------------------------------------|
A|----------------------------------------------------------------|
E|----------------------------------------------------------------|

Cant Find A Tab? Mail Me: slash_2k4@hotmail.com, may be i have it, if i dont have it, 
i'll find it for free.
Suggest correction
comments
print report bad tab
3 comments total.
0 reply
sampz 10 Aug 08, 2007 12:48 PM

nice

0 reply
gunnerman 31 Feb 13, 2008 06:57 AM

really good, but I fell like something is missing..

0 reply
gavv-2k8 10 Jun 06, 2008 01:48 PM

awsome job (Y)
sounds right and its fun to play xD

guest
You may want to rate the tab now too:
select rating
Wanna post a correction for this tab? Suggest correction