Oops, an error
Loading. Please wait.

Godspell - All For The Best Bass Tab

767 views 1 this week
no commentswrite comment
1 2 3 4 5
please rate
add to favorites
launch autoscroll
font size
0
reset
guitar tuner
Autoscroll
slow
fast
+/-
esc
set tempo
stop
Help us to improve Ultimate-Guitar.com Take our survey!
×
Difficulty
intermediate
Godspell
All For the Best
5 String, Standard

--------------------------------------------------------|
-----------------------------------------0-5-3-1-0------|
-3-3-3-3-45-7-0-7-0-7-0-7-43--3-3-3--3-2----------------|
--3-3-3----------------------3-3-3-3--------------------|
--------------------------------------------------------|


-------------------------------------1--2----5-3-5-7-5--|
----------------------------3--4--5---------------------|
-3-3-3-3-45-7-0-7-0-7-0-7-5-----------------------------|
--3-3-3-------------------------------------------------|
--------------------------------------------------------|


-------------|--|
-------------|--|
-3-2-0-----0-|--|
-------3-4---|--|
-------------|--|
Plank Part
Suggest correction
Give kudos to tab author, rate the tab!
1 2 3 4 5
comments
print report bad tab
guest
You may want to rate the tab now too:
select rating
Please do not post tabs as comments. Select "correction" instead!