Oops, an error
Loading. Please wait.

Godspell - God Save The People Bass Tab

891 views 1 this week
no commentswrite comment
1 2 3 4 5
please rate
add to favorites
launch autoscroll
font size
0
reset
guitar tuner
Autoscroll
slow
fast
+/-
esc
set tempo
stop
Help us to improve Ultimate-Guitar.com Take our survey!
×
Difficulty
intermediate
Godspell
God Save the People
5 String, Standard


------|------------|
------|------------|
--3-5-|--3-0----5--|
-3----|-3-----1----|
------|------------|

---------|-----------|
---------|-----------|
---2-3-5-|---2-3-0---|
-0-------|-0-------3-|
---------|-----------|

---------|
---------|
------5--|
----1----|
--4------|
Suggest correction
Give kudos to tab author, rate the tab!
1 2 3 4 5
comments
print report bad tab
guest
You may want to rate the tab now too:
select rating
Wanna post a correction for this tab? Suggest correction