Oops, an error
Loading. Please wait.

Grease - Summer Lovin tab

version 1
version 1

Whole song

26,023 views 39 this week
7 commentsread comments
1 2 3 4 5
x 27
add to favorites
×
Save as Personal and add changes to this tab that will be seen only by you. Learn more ›
×
You can save this tab as Personal to edit and correct it or add notes. All changes will be seen only by you. Learn more »
launch autoscroll
font size
0
reset
how to read this tab
guitar tuner
edit
Autoscroll
slow
fast
+/-
esc
set tempo
stop
Author
Difficulty
Unregistered
E|----------------------------------|
b|----------------------------------|
G|----------------------------------|
D|----------------------------------|
A|-----------0---0-2----0-2-0-2-----|
E|--0-----0-------------------------|


E|----------------------------------|
b|----------------------------------|
G|----------------------------------|
D|----------------------------------|
A|-----------0---0-2----0-2-0-2-----|
E|--0-----0-------------------------|


E|----------------------------------|
b|----------------------------------|
G|----------------------------------|
D|----------------------------------|
A|-----------0---0-2----0-2-0-2-----|
E|--0-----0-------------------------|


REPEAT THROUGH SONG UNTIL IT GETS SLOWER THEN PLAY IT SLOWER

            
            
Suggest correction
Creating personal tab
Creating personal tab
You can edit any tab online and save it as your Personal.

You can edit, replace or remove any tab part or add personal notes – all changes will be seen only by you.

Personal tabs can be accessed anytime from any device, even offline.
Learn more »
comments
print report bad tab
7 comments total. Showing first comments.
0 reply
noone23 10 Nov 26, 2007 02:06 PM

eumm ...NO

0 reply
gibson_LPs 10 Dec 11, 2007 01:38 AM

VERY wrong

+2 reply
Klown100400 10 Feb 28, 2008 08:42 PM

lol this is the worst tab ever

guest
Wanna post a correction for this tab? Suggest correction