Oops, an error
Loading. Please wait.

Grease - Summer Nights tab

version 4
version 4

Whole song

Interactive

4,552 views 1 this week
2 commentsread comments
1 2 3 4 5
x 4
add to favorites
×
Save as Personal and add changes to this tab that will be seen only by you. Learn more ›
×
You can save this tab as Personal to edit and correct it or add notes. All changes will be seen only by you. Learn more »
launch autoscroll
font size
0
reset
how to read this tab
guitar tuner
edit
Autoscroll
slow
fast
+/-
esc
set tempo
stop
Author
Difficulty
Unregistered
Hello,
i can give you the guitar tab but i can also give you the keyboard tab :)

here we go ...

e|-----------------------------------------------------------------|
B|-----------------------------------------------------------------|
G|-----------------------------------------------------------------|
D|-----------------------------------------------------------------|
A|-----------------------------------------------------------------|
E|0-0-5-5-7-7-5-7-5------------------------------------------------|

e|-----------------------------------------------------------------|
B|-----------------------------------------------------------------|
G|-----------------------------------------------------------------|
D|-----------------------------------------------------------------|
A|-----0-0-2-2-0-2-0-----------------------------------------------|
E|-0-0-------------------------------------------------------------|

e|-----------------------------------------------------------------|
B|-----------------------------------------------------------------|
G|-----------------------------------------------------------------|
D|-----2-2-4-4-2-4-2-----------------------------------------------|
A|-2-2-------------------------------------------------------------|
E|-----------------------------------------------------------------|

keyboard: F# F# C# C# D# D# C# D# C#   
for people who think  # ?? wtf ??    # = the black ones
this is your keyboard: C C# D D# E F F# G G# A A# B

Greetz: wesley van kuyk 

            
            
Suggest correction
Creating personal tab
Creating personal tab
You can edit any tab online and save it as your Personal.

You can edit, replace or remove any tab part or add personal notes – all changes will be seen only by you.

Personal tabs can be accessed anytime from any device, even offline.
Learn more »
comments
print report bad tab
2 comments total.
+1 reply
noone23 10 Nov 26, 2007 02:13 PM

the keyboard tab is a little off..

0 reply
BobaloC 143 Feb 02, 2009 10:04 AM

2*

guest
Wanna post a correction for this tab? Suggest correction