Oops, an error
Loading. Please wait.

Grindhouse Main Titles Bass Tab

1,387 views 1 this week
no commentswrite comment
1 2 3 4 5
1 last vote to show rating
add to favorites
launch autoscroll
font size
0
reset
guitar tuner
Autoscroll
slow
fast
+/-
esc
set tempo
stop
Help us to improve Ultimate-Guitar.com Take our survey!
×
Author
Difficulty
novice
G|---------------------------------------------------------------------------|
D|---------------------------------------------------------------------------|
A|---------------------------------------------------------------------------|
E|---2--0-2-3-2-0-2----2--2-0-2-3-2-0---2--2-0-2-3-2-0-----------------------|

Repeat throughout

G|---------------------------------------------------------------------------------|
D|---------------------------------------------------------------------------------|
A|-----5--------2----------------------------------5-------------------------------|
E|---5--7-----2---5----0---2---2--0-2-3-2-0-2----5--7----2--5----0--2--0-2-3-2-0-2-|

G|---------------------------------------------------------------------------|
D|---------------------------------------------------------------------------|
A|---------------------------------------------------------------------------|
E|---2--0-2-3-2-0-2----2--2-0-2-3-2-0---2--2-0-2-3-2-0-----------------------|

That's basically it. please rate & if you find anything wrong let me know. It's my first tab.

Suggest correction
Give kudos to tab author, rate the tab!
1 2 3 4 5
comments
print report bad tab
guest
You may want to rate the tab now too:
select rating
Wanna post a correction for this tab? Suggest correction