Oops, an error
Loading. Please wait.

Hamilton - Dear Theodosia Tab

2,527 views 84 this week
no commentswrite comment
1 2 3 4 5
x 9
add to favorites
launch autoscroll
font size
0
reset
how to read this tab
guitar tuner
Autoscroll
slow
fast
+/-
esc
set tempo
stop
Author
Difficulty
novice
About this tab version
This is made to sound like the piano intro to the song, note for note. Was this info helpful? Yes No
[Intro]

e|----0-----0-----0-----0------0-----0-----0-----0---------------------------|
B|----2-----2-----2-----2------2-----2-----2-----2-----2-----2-----2-----2---|
G|-2------2----2-----2------1------1----1-----1--------2-----2-----2-----2---|
D|--------------------------------------------------4------4----4-----4------|
A|---------------------------------------------------------------------------|
E|---------------------------------------------------------------------------|

e|---------------------------------------------------------------------------|
B|----2-----2-----2-----0----------------------------------------------------|
G|----2-----2-----2-----1---2------------------------------------------------|
D|-0------0----0-----2-------------------------------------------------------|
A|---------------------------------------------------------------------------|
E|---------------------------------------------------------------------------|


[High part]

e|-5-----------9------------4-----------12----------2-----------9------------|
B|---------------------------------------------------------------------------|
G|---------------------------------------------------------------------------|
D|---------------------------------------------------------------------------|
A|---------------------------------------------------------------------------|
E|---------------------------------------------------------------------------|

e|-10----------9------------5------------------------------------------------|
B|---------------------------------------------------------------------------|
G|---------------------------------------------------------------------------|
D|---------------------------------------------------------------------------|
A|---------------------------------------------------------------------------|
E|---------------------------------------------------------------------------|
Suggest correction
comments
print report bad tab
guest
You may want to rate the tab now too:
select rating
Wanna post a correction for this tab? Suggest correction