Oops, an error
Loading. Please wait.

Hamilton - Wait For It tab

version 2
version 2

Whole song

1,279 views 3 this week
no commentswrite comment
1 2 3 4 5
3 more votes to show rating
add to favorites
×
Save as Personal and add changes to this tab that will be seen only by you. Learn more ›
×
You can save this tab as Personal to edit and correct it or add notes. All changes will be seen only by you. Learn more »
launch autoscroll
font size
0
reset
how to read this tab
guitar tuner
edit
Autoscroll
slow
fast
+/-
esc
set tempo
stop
Wait For It - Hamilton
Capo I


[Intro]
     
    C         Am          Em
e|---------------------------------------------------------------------------|
B|---------------------------------------------------------------------------|
G|---0----------2----------0-------------------------------------------------|  (x2)
D|-----2----------2----------2-----------------------------------------------|
A|-3----------0----------2---------------------------------------------------|
E|---------------------------------------------------------------------------|


[Verse]

    C          Am         Em
e|---------------------------------------------------------------------------|
B|---------------------------------------------------------------------------|
G|---0----------2----------0-------------------------------------------------|  ( x3 )
D|-----2----------2----------2-----------------------------------------------|
A|-3----------0----------2---------------------------------------------------|
E|---------------------------------------------------------------------------|

    C          Am         Em
e|---------------------------------------------------------------------------|
B|---------------------------------------------------------------------------|
G|---0----------2------------------------------------------------------------|  
D|-----2----------2----------------------------------------------------------|
A|-3----------0----------2---------------------------------------------------|
E|---------------------------------------------------------------------------|


[Chorus]

e|---------------------------------------------------------------------------|
B|---------------------------------------------------------------------------|
G|---------------------------------------------------------------------------|
D|-----2-3-2---0---2-3-2-------2-3-2---3-2---3-2-----------------------------|
A|-0-3-------3---3-------3-0-3-------3-----3-----3---------------------------|
E|---------------------------------------------------------------------------|

e|---------------------------------------------------------------------------|
B|---------------------------------------------------------------------------|
G|---------------------------------------------------------------------------|
D|-----2-3-2---0---2-3-2-------2-3-2---0-------------------------------------|
A|-0-3-------3---3-------3-0-3-------3---------------------------------------|
E|---------------------------------------------------------------------------|


[Verse]

    C          Am         Em
e|---------------------------------------------------------------------------|
B|---------------------------------------------------------------------------|
G|---0----------2----------0-------------------------------------------------|  ( x3 )
D|-----2----------2----------2-----------------------------------------------|
A|-3----------0----------2---------------------------------------------------|
E|---------------------------------------------------------------------------|

    C          Am         Em
e|---------------------------------------------------------------------------|
B|---------------------------------------------------------------------------|
G|---0----------2------------------------------------------------------------|  
D|-----2----------2----------------------------------------------------------|
A|-3----------0----------2---------------------------------------------------|
E|---------------------------------------------------------------------------|


[Chorus]

e|---------------------------------------------------------------------------|
B|---------------------------------------------------------------------------|
G|---------------------------------------------------------------------------|
D|-----2-3-2---0---2-3-2-------2-3-2---3-2---3-2-----------------------------|
A|-0-3-------3---3-------3-0-3-------3-----3-----3---------------------------|
E|---------------------------------------------------------------------------|

e|---------------------------------------------------------------------------|
B|---------------------------------------------------------------------------|
G|---------------------------------------------------------------------------|
D|-----2-3-2---0---2-3-2-------2-3-2---0-------------------------------------|
A|-0-3-------3---3-------3-0-3-------3---------------------------------------|
E|---------------------------------------------------------------------------|


Am            F
(Wait for it, wait for it)
C                     G              Am   F
I am the one thing in life I can control
C                G                Am   F
I am inimitable, I am an original
C               G                 Am    F
I'm not falling behind or running late
C                G                    Am    F
I'm not standing still, I am lying in wait

C                 G              Am      F
Hamilton faces an endless uphill climb
C                          G                    Am   F
He has something to prove, he has nothing to lose
C                    G                      Am     F
Hamilton's pace is relentless, he wastes no time
C                  Em (let ring)
What is it like in his shoes?


(Strum once)

Am                       F                    C
Hamilton doesn't hesitate, he exhibits no restraint and he takes and he takes and he takes
                                         (slowly strum faster)
    Am                     F             C
And he keeps winning anyway, changes the game he plays and he raises the stakes
    Am                  F                       C                    G
And if there's a reason he seems to thrive when so few survive, then goddamnit
               Am          F
I'm willing to wait for it
               C (let ring)
I'm willing to wait for it


[Chorus]

  Am                      F                           C                       G
Life doesn't discriminate between the sinners and the saints, it takes and it takes and it takes

Am                    F               C                        G
We keep living anyway, we rise and we fall and we break and we make our mistakes

    Am                  F                     C                G
And if there's a reason I'm still alive while so many have died, then I'm willing to—


[Outro]

    C          Am         Em
e|---------------------------------------------------------------------------|
B|---------------------------------------------------------------------------|
G|---0----------2----------0-------------------------------------------------|  
D|-----2----------2----------2-----------------------------------------------|
A|-3----------0----------2---------------------------------------------------|
E|---------------------------------------------------------------------------|

    C          Am         Em
e|---------------------------------------------------------------------------|
B|---------------------------------------------------------------------------|
G|---0----------2------------------------------------------------------------|  
D|-----2----------2----------------------------------------------------------|
A|-3----------0----------2---------------------------------------------------|
E|---------------------------------------------------------------------------|
Suggest correction
Creating personal tab
Creating personal tab
You can edit any tab online and save it as your Personal.

You can edit, replace or remove any tab part or add personal notes – all changes will be seen only by you.

Personal tabs can be accessed anytime from any device, even offline.
Learn more »
Give kudos to tab author, rate the tab!
1 2 3 4 5
comments
print report bad tab
guest
You may want to rate the tab now too:
select rating
Wanna post a correction for this tab? Suggest correction