Oops, an error
Loading. Please wait.

Harry Potter - Hedwigs Theme intro tab

version 1
version 1

Intro

Whole song

135,540 views 303 this week
19 commentsread comments
1 2 3 4 5
x 87
add to favorites
×
Save as Personal and add changes to this tab that will be seen only by you. Learn more ›
×
You can save this tab as Personal to edit and correct it or add notes. All changes will be seen only by you. Learn more »
launch autoscroll
font size
0
reset
how to read this tab
guitar tuner
edit
Autoscroll
slow
fast
+/-
esc
set tempo
stop
Almost similar to the second version, this tab has an extra line just to give you that 
Harry Potter feeling. This is my first tab, actually second, cause ultimate-g thought 
were alot of versions of 'the simpsons". anyway, hope you enjoy it.


e|-------0--3--2--0--7--5--2---------0--3--2-----2--0----------------|
B|----0---------------------------------------3----------------------|
G|-------------------------------------------------------------------|
D|-------------------------------------------------------------------|
A|-------------------------------------------------------------------|
E|-------------------------------------------------------------------|

e|---0--3--2--0--7--10--9--8--5--8--7--6-----3--0--------------------|
B|-0-----------------------------------------------------------------|
G|----------------------------------------3--------------------------|
D|-------------------------------------------------------------------|
A|-------------------------------------------------------------------|
E|-------------------------------------------------------------------|

e|------7-------7-------10--9--8--5--8--7--6-----3--0----------------|
B|---8-------8------8------------------------------------------------|
G|--------------------------------------------3----------------------|
D|-------------------------------------------------------------------|
A|-------------------------------------------------------------------|
E|-------------------------------------------------------------------|

            
            
Suggest correction
Creating personal tab
Creating personal tab
You can edit any tab online and save it as your Personal.

You can edit, replace or remove any tab part or add personal notes – all changes will be seen only by you.

Personal tabs can be accessed anytime from any device, even offline.
Learn more »
comments
print report bad tab
19 comments total. Showing first comments.
+1 reply
DullZ 10 Jul 22, 2004 08:00 PM

Great tab, i just found one glitch ( or thats how i think it should be played)

it's that last tune in first of the three parts. it's supposed to be a "0" instead of "3"

i sure hope i've corrected it correctly..

0 reply
kfroberg116 10 Jan 26, 2005 07:00 PM

The first part is good except for the end. It should go (b-string) "0" to (high e-string) "3, 2, 0, 3" and then back to (b-string) "0". I think that's right. I've been playing it like that for awhile and it sounds about right.

+1 reply
Jellyfish137 10 Sep 29, 2005 06:57 PM

wrong notes

guest
You may want to rate the tab now too:
select rating
Wanna post a correction for this tab? Suggest correction