Oops, an error
Loading. Please wait.

Harry Potter - Hedwigs Theme tab

version 2
version 2

Whole song

Video

359,547 views 351 this week
33 commentsread comments
1 2 3 4 5
x 606
add to favorites
×
Save as Personal and add changes to this tab that will be seen only by you. Learn more ›
×
You can save this tab as Personal to edit and correct it or add notes. All changes will be seen only by you. Learn more »
launch autoscroll
font size
0
reset
how to read this tab
guitar tuner
edit
Autoscroll
slow
fast
+/-
esc
set tempo
stop
Harry Potter Theme 
Tabbed by: Max la Menace

Here are the notes that we found in the middle of the Harry Potter Theme song. Good luck...

[0:46]
e----|---------------7-5-----------|-0---3-2-------1-------------|
B--0-|-5---8-7--5------------7-----|----------3------0---------0-|
G----|-----------------------------|-----------------------------|
D----|-----------------------------|-----------------------------|
A----|-----------------------------|-----------------------------|
E----|-----------------------------|-----------------------------|

e|---------------7-10---9-8-----|-8---7-6--6------------------|
B|-5---8-7--5-----------------9-|---------------8-5---------8-|
G|------------------------------|-----------------------------|
D|------------------------------|-----------------------------|
A|------------------------------|-----------------------------|
E|------------------------------|-----------------------------|

[1:03]
e|-7-----7-----8---7-6-----|-----7-6--6---8-7-----------|
B|-----8-----8-----------7-|-8------------------------8-|
G|-------------------------|--------------5*------------|
D|-------------------------|----------8*----------------|
A|-------------------------|----------------------------|
E|-------------------------|----------------------------|

e|-7-----7-----10---9-8-----|-8---7-6--6----------------|
B|-----8-----8------------9-|--------------8-5----------|
G|--------------------------|---------------------------|
D|--------------------------|----------8*---------------|
A|--------------------------|---------------------------|
E|--------------------------|---------------------------|

* these notes are played by a different instrument and sound louder than the higher melody notes,
so you can substitute them for the higher ones if you wish.

            
            
Suggest correction
Creating personal tab
Creating personal tab
You can edit any tab online and save it as your Personal.

You can edit, replace or remove any tab part or add personal notes – all changes will be seen only by you.

Personal tabs can be accessed anytime from any device, even offline.
Learn more »
comments
print report bad tab
33 comments total. Showing first comments.
+5 reply
guitarfreak222 50 Oct 28, 2007 12:32 AM

great tab!

+3 reply
durber08 50 Feb 12, 2008 02:49 PM

very nice

0 reply
Jtang 51 Mar 31, 2008 07:03 PM

nice tab dude

guest
You may want to rate the tab now too:
select rating
Wanna post a correction for this tab? Suggest correction