Oops, an error
Loading. Please wait.

Harry Potter - Hedwigs Theme tab

version 6
version 6

Whole song

Video

53,416 views 15 this week
3 commentsread comments
1 2 3 4 5
x 9
add to favorites
×
Save as Personal and add changes to this tab that will be seen only by you. Learn more ›
×
You can save this tab as Personal to edit and correct it or add notes. All changes will be seen only by you. Learn more »
launch autoscroll
font size
0
reset
how to read this tab
guitar tuner
edit
Autoscroll
slow
fast
+/-
esc
set tempo
stop
Author
-------------------------------------------------------------------------------
                             HARRY POTTER THEME - Misc Soundtrack
-------------------------------------------------------------------------------

This is the Harry Potter Theme Song! Also known as "Hedwig's Theme." It's a finger-style 
arranged by me.


[Part One:]

e-------0--------3--2-------0---------7--5-------5-------------------0------3--2-|
B-0---3/5--5-----------0--3/5--5---5-----4--4------4--7-------7----3/5--5--------|
G---0---0----0--------------0----0-------4----4-------8--8------8----0----0------|
D----------------------------------------4------4-----7----7---------------------|
A--------------------------------------------------------------------------------|
E-------0-------------------0---------7---------------7------7-------0-----------|


e------------------------3p2------------0-------3-2------0--------7------10-10--------|
B-3------5--4--------4-------4--------3/5--5--------0--3/5--5---5----0---10-----10----|
G---0--0----4--4-------4-------4---4----0-----0----------0----0----------11--------11-|
D-----0-----4----4---------------4---------------------------------------12-----------|
A-----------2------2-----------------------------------------------------12-----------|
E-3-------------------------------------0----------------0--------7------10-----------|


e-9--8--8-----------8----8---7--6------------3----0--0-------------------*12-|
B----8----8---10----8------8-------4--------------0-----0----------------*12-|
G----9------9----9--8--------------4--4---4----4--0--------0----0------------|
D----10-------------10-------------4----4---------2-----------2--------------|
A----10-------------10-------------2--------------2--------------------------|
E----8--------------8-----------------------------0------------------*12-----|


Repeat Part One, then Go on to Part Two.


[Part Two:]


e--3---3/7--------3---3/7--------3-----8---------7--6-------------0------7--6-|
B----0---0--0---0---0---0--0---0---0---8--8---------7-7-----7---3/8-----------|
G--------0----0---------0----0---------9----9-------8---8-----8---0----0------|
D-----------------------------------------------------------------------------|
A---------------------------------------------------9-----9-------------------|
E--------0--------------0--------------8-------8------------------0--0--------|


e-------------3-----3/7---------3----3/7---------3---3/7---------3---3/7--------------|
B--2----2--------0----0--0---0----0----0--0---0----0---0--0---0----0---0--0---0--8----|
G--3-------3----------0----0-----------0----0----------0----0----------0----0-------0-|
D--2--2-------------------------------------------------------------------------------|
A-------------------------------------------------------------------------------------|
E--2-------2----------0----------------0---------------0---------------0--------------|

e-10--10-------9--8--8-----------8--8---7--6---------3--0---------------*12-|
B-10-----10-------8----8---10----8----8------4-4-----4--0-------0-------*12-|
G-11--------11----9------9----9--8-----------4---4------0--0------0---------|
D-12--------------10-------------10----------4-----4----2-----2-------------|
A-12--------------10-------------10----------2----------2----2--------------|
E-10--------------8--------------8----------------------0------------*12----|


Repeat Part Two, Then go on to Modified Part One/Ending:


e-------0--------3--2-------0---------7--5-------5-------------------0------3--2-|
B-0---3/5--5-----------0--3/5--5---5-----4--4------4--7-------7----3/5--5--------|
G---0---0----0--------------0----0-------4----4-------8--8------8----0----0------|
D----------------------------------------4------4-----7----7---------------------|
A--------------------------------------------------------------------------------|
E-------0-------------------0---------7---------------7------7-------0-----------|


e------------------------3p2------------0-------3-2------0--------7------10-10--------|
B-3------5--4--------4-------4--------3/5--5--------0--3/5--5---5----0---10-----10----|
G---0--0----4--4-------4-------4---4----0-----0----------0----0----------11--------11-|
D-----0-----4----4---------------4---------------------------------------12-----------|
A-----------2------2-----------------------------------------------------12-----------|
E-3-------------------------------------0----------------0--------7------10-----------|


e-9--8--8-----------8------8---7--6---------------3---------------------|
B----8----8---10----8--------8--------4-----------------5----------5----|
G----9------9----9--8-----------------4--4-----4----4---5--5----------5-|
D----10-------------10----------------4-----4-----------5-----5---------|
A----10-------------10----------------2-----------------3-------3-------|
E----8--------------8---------------------------------------------------|


e---*12----0--------------|
B---*12-----0-------------|
G---*12------0------------|
D-------------2-----------|
A--------------2----------|
E---*12---------0---------|



************************************

| /  Slide up
| p  Pull-off
| *  Natural harmonic

************************************

            
            
Suggest correction
Creating personal tab
Creating personal tab
You can edit any tab online and save it as your Personal.

You can edit, replace or remove any tab part or add personal notes – all changes will be seen only by you.

Personal tabs can be accessed anytime from any device, even offline.
Learn more »
comments
print report bad tab
3 comments total.
0 reply
geroscoe1 10 Aug 16, 2009 05:59 AM

Awesome tab. And great video of you playing it, Im a huge fan :)

0 reply
Bard. 10 Dec 23, 2009 11:03 AM

this is the best tab for this song

0 reply
IvanManko 10 Nov 19, 2016 04:26 AM

Your video is private... :(

guest
You may want to rate the tab now too:
select rating
Wanna post a correction for this tab? Suggest correction