Oops, an error
Loading. Please wait.

Harry Potter - Hedwigs Theme tab

version 8
version 8

Whole song

Video

106,347 views 105 this week
23 commentsread comments
1 2 3 4 5
x 467
add to favorites
×
Save as Personal and add changes to this tab that will be seen only by you. Learn more ›
×
You can save this tab as Personal to edit and correct it or add notes. All changes will be seen only by you. Learn more »
launch autoscroll
font size
0
reset
how to read this tab
guitar tuner
edit
Autoscroll
slow
fast
+/-
esc
set tempo
stop
e|--0-3-2-0-7-5-2-0-3-2--2--|
B|-0--------------------3--0|
G|--------------------------|
D|--------------------------|
A|--------------------------|
E|--------------------------|

e|--0-3-2-0-7-10-9-8-5-8-7-6-2-3-0|
B|-0------------------------------|
G|--------------------------------|
D|--------------------------------|
A|--------------------------------|
E|--------------------------------|


e|----7----7-----8--7-6-|------7-6-------7----|
B|--8----8-----8--------|-7-8-----------------|
G|----------------------|-------------5*------|
D|----------------------|----------8----------|
A|----------------------|---------------------|
E|----------------------|---------------------|

e|----7----7-----10--9--8-|-4--8--7--6-----3-0--|
B|--8----8-----8----------|---------------------|
G|------------------------|-------------3-------|
D|------------------------|---------------------|
A|------------------------|---------------------|
E|------------------------|---------------------|




Rate please :)

            
            
Suggest correction
Creating personal tab
Creating personal tab
You can edit any tab online and save it as your Personal.

You can edit, replace or remove any tab part or add personal notes – all changes will be seen only by you.

Personal tabs can be accessed anytime from any device, even offline.
Learn more »
comments
print report bad tab
23 comments total. Showing first comments.
+5 reply
x4everxwickedx 10 Jul 28, 2010 11:28 AM

Thank you for posting!
I LOVE HARRY POTTER!!!

+3 reply
GuitarFreakster 71 Sep 16, 2010 05:27 PM

hey! your welcome. this is the first tab i ever learned. its great.

+1 reply
blaargon 10 Oct 12, 2012 06:47 PM

I think there should be an open B right before the third open e.

guest
You may want to rate the tab now too:
select rating
Wanna post a correction for this tab? Suggest correction