Oops, an error
Loading. Please wait.

Ink - Who You Were Bass Tab

435 views 1 this week
no commentswrite comment
1 2 3 4 5
2 more votes to show rating
add to favorites
launch autoscroll
font size
0
reset
guitar tuner
Autoscroll
slow
fast
+/-
esc
set tempo
stop
Help us to improve Ultimate-Guitar.com Take our survey!
×
Author
Difficulty
novice
-------------------------------------------------------------------------------
		Who You Were - Jamin Winans - ink soundtrack
-------------------------------------------------------------------------------

Tabbed By : viper565

Tuning: Standard

Here's the intro which can be repeated through the majority of the song:

G|--------------------------------------------------------------------------|
D|-----7-----7-----7-----7--------7-----7-----7-----7-----------------------|
A|-5-8---5-8---5-8---5-8------3-8---3-8---3-8---3-8-------------------------|
E|--------------------------------------------------------------------------| 

G|--------------------------------------------------------------------------|
D|-----------------------------------3------3------3------3-----------------|
A|-0-3-7--0-3-7--0-3-7--0-3-7----0-5----0-5----0-5----0-5-------------------|
E|--------------------------------------------------------------------------| 

And the piano melody
G|-----------------|---14---14-12-10----10---10-12-14-20--19---10-12-14-16--|
D|12~------12--(10)|12---------------10-------------------------------------|
A|-----------------|--------------------------------------------------------|
E|-----------------|--------------------------------------------------------| 

enjoy.


| /  slide up
| \  slide down
| h  hammer-on
| p  pull-off
| ~  vibrato
| +  harmonic
| x  Mute note
===============================================================================
Suggest correction
Give kudos to tab author, rate the tab!
1 2 3 4 5
comments
print report bad tab
guest
You may want to rate the tab now too:
select rating
Wanna post a correction for this tab? Suggest correction