Oops, an error
Loading. Please wait.

James Bond Theme Bass Tab

version 2
version 2

Whole song

8,824 views 18 this week
2 commentsread comments
1 2 3 4 5
accurate
x 8
add to favorites
launch autoscroll
font size
0
reset
guitar tuner
Autoscroll
slow
fast
+/-
esc
set tempo
stop
Help us to improve Ultimate-Guitar.com Take our survey!
×
Author
I tabbed this in the bass form for my friend to use. This is exactly the same on a
six-string up until the last two notes. On a six-string change the 87 on G to 43 on
B. Sustain the chord at the end for about a measure. The timing is off...but just
listen to the song twice and you'll get it.

G|---------------|---------------|------------------|------------------|
D|2---3---4---3--|2---3---4---3--|------------------|------------------|
A|--0---0---0---0|--0---0---0---0|------------------|------------------|
E|---------------|---------------|0-222-0000-333-222|0-222-0000-333-210|

G|--------|--87--------------|----87-------------|--------|--------|
D|10------|-5---589--5754--2-|---5---589--5754-12|-22-2424|-55-5424|
A|---202--|7--------------2-4|--7-------------2--|--------|--------|
E|--------|------------------|-------------------|--------|--------|

G|--------|--------|-------32-287|0|
D|-22-2424|-55-5424|---43-0--3---|4|
A|--------|--------|--2--3-------|2|
E|--------|--------|-3-----------|0|
Suggest correction new What's this?
You can suggest a correction to this tab. Community and Mods will review your correction and vote to approve or reject it.
comments
print report bad tab
2 comments total.
+1 reply
bigdavedude182 412 wrote on February 2 2006, 09:28 am

everything apart from the first bar is correct. it goes
e|----------------------------------|
B|----------------------------------|
G|----------------------------------|
D|----------------------------------|
A|-2---2---3---3---4---4---3---3----|
E|---0---0---0---0---0---0---0---0--|

+1 reply
hazzarichie 33 wrote on June 4 2008, 02:29 pm

what ever

guest
You may want to rate the tab now too:
select rating
Please do not post tabs as comments. Select "correction" instead!