Oops, an error
Loading. Please wait.

Jesus Christ Superstar - Judass Death Tab

6,084 views 1 this week
1 commentread comment
1 2 3 4 5
accurate
x 3
add to favorites
launch autoscroll
font size
0
reset
how to read this tab
guitar tuner
Tab Pro tools
  • play this tab
  • loop segment
  • change instrument
  • show fretboard
  • metronome
×
Best way to learn
"Jesus Christ Superstar - Judass Death"
Autoscroll
slow
fast
+/-
esc
set tempo
stop
Contributor
Difficulty
novice
|-----------------------|-----------------|----------|----------------------|
|-play-this-part-6-times|-----------------|----------|----------------------|
|-----------------------|-7-7-7-7-7-7-7-7-|-7-7--7-7-|----------------------|
|-5-5-5-5-5-5-5-5-6-x-6-|-7-7-7-7-7-7-7-7-|-7-7--7-7-|-5-5-5-5-5-5-5-5-6-x-6|
|-5-5-5-5-5-5-5-5-6-x-6-|-5-5-5-5-5-5-5-5-|-5-5--5-5-|-5-5-5-5-5-5-5-5-6-x-6|
|-3-3-3-3-3-3-3-3-4-x-4-|-----------------|----------|-3-3-3-3-3-3-3-3-4-x-4|

|---------------------------------|-----------------------|
|---------------------------------|-----------------------|
|-7-7-7-7-7-7-7-7-7-7-7-7-7-7-7-7-|-----------------------|
|-7-7-7-7-7-7-7-7-7-7-7-7-7-7-7-7-|-5-5-5-5-5-5-5-5-6-x-6-|
|-5-5-5-5-5-5-5-5-5-5-5-5-5-5-5-5-|-5-5-5-5-5-5-5-5-6-x-6-|
|---------------------------------|-3-3-3-3-3-3-3-3-4-x-4-|

|-----------------------------------------|
|----play-this-part-four-times------------|
|-3-3-3-2-2-3-3-3-4-4-5-5-5-5-5-5-3-3-3-3-|
|-3-3-3-2-2-3-3-3-4-4-5-5-5-5-5-5-3-3-3-3-|
|-1-1-1-0-0-1-1-1-2-2-3-3-3-3-3-3-1-1-1-1-|
|-----------------------------------------|

|---------------------|---------------------------------|
|-play-this-part-twice|---------------------------------|
|-5-5-5-5-5-5-3-3-3-3-|-5-5-5-5-5-5-3-3-3-4-4-4-3-3-3-3-|
|-5-5-5-5-5-5-3-3-3-3-|-5-5-5-5-5-5-3-3-3-4-4-4-3-3-3-3-|
|-3-3-3-3-3-3-1-1-1-1-|-3-3-3-3-3-3-1-1-1-2-2-2-1-1-1-1-|
|---------------------|---------------------------------|

[judas sings "i don't know how to love him"]

D G    D           G    D
I dont know how to love him
G       G6          D/A   A
I don't know why he moves me
           D/F#  A          D
He's just a man, he's just a man
A     F#m7  Bm                 F#m7  Bm
He is not a king. he is just the same
   G-D/F#-Em D A9
as an-y-one I know
D  D/F#   Em7 D
He Scares me so
D    D/F# Em7  D
When He's Cold and dead
G   D/F# Em D  A9
will he let me be?
D   G  D        G   D
does he love me too?
G   G6          D/A  D  
does he care for me?



then judas hangs himself and we're done
props to jim loya (jloya@world.std.com) for tabbing "i don't know how to love him"
drop me a line at paddyofyc3584@yahoo.com
comments
We did not receive enough feedback on this tab! Please rate:
print report bad tab
1 2 3 4 5
1 comment total.
0 reply
METAL MILITIA1 wrote on April 10 2015, 07:55 pm

didn't like this contribution

I want to post or [tab]
guest
You may want to rate the tab now too:
select rating
Please do not post tabs as comments. Select "correction" instead!