Oops, an error
Loading. Please wait.

Jurassic Park Theme Bass Tab

version 1
version 1

Whole song

Interactive

2,846 views 3 this week
2 commentsread comments
1 2 3 4 5
x 4
add to favorites
launch autoscroll
font size
0
reset
guitar tuner
×
Best way to learn
"Jurassic Park Theme"
Autoscroll
slow
fast
+/-
esc
set tempo
stop
    From: w_knaus@foma.wsc.mass.edu (unknown)
    To: dwm3@po.cwru.edu
    Subject: Jurrasic Park Theme Bass Tab
    Date: Wed, 18 Dec

    
    X-Mailer: Lynx, Version 2.5
    I wAs HiTtInG StUfF aNd I gOt ThE MaIn PaRt Of ThE JuRrAsIc PaRk ThEmE:
    
    G--------------------------------------------------------
    D-9-8-9--------9-8-9---------9-8-9----------9-8-9--------
    A-------9-7-----------9-7-----------9-7------------------
    E--------------------------------------------------------
    
    Repeat.
    Any Requests all try my hardest-w_knaus@foma.wsc.mass.edu
    
    RECIPROCITY!!!!!!!!!
    
Suggest correction
comments
print report bad tab
2 comments total.
+2 reply
lsd299 70 Nov 28, 2002 07:00 PM

here is some fo the rest of the song:

E|----------------------------|
A|--9-8-8-9-----7-------------|
D|----------9-0---------------|
G|----------------------------|

add this every 2 measures

im not sure if its perfect, but its closer.

-1 reply
rocker138 10 Apr 12, 2006 01:12 PM

Its too short and doesnt explain the whole thing..you should have named it "part of jurassic park Theme".

guest
You may want to rate the tab now too:
select rating
Wanna post a correction for this tab? Suggest correction