Oops, an error
Loading. Please wait.

Jurassic Park Theme Tab

version 4
version 4

Interactive

5,478 views 12 this week
no commentswrite comment
1 2 3 4 5
x 3
add to favorites
×
Save as Personal and add changes to this tab that will be seen only by you. Learn more ›
×
You can save this tab as Personal to edit and correct it or add notes. All changes will be seen only by you. Learn more »
save as personal
new!
launch autoscroll
font size
0
reset
how to read this tab
guitar tuner
Autoscroll
slow
fast
+/-
esc
set tempo
stop
THe Jurassic park theme

Its simple to play just make sure you get the timeing right because it
will sound all bizare if you dont. Listen to the theme if you need the correct
timeing. You may have noticed the little (r)'s I have added next to certain
numbers. Thats just my way of saying let it ring for about a whole second but
still fret the string according to the number. Sorry
I havent added any chords for all you who like chords but im a newbie
myself so i dont know all the chrods yet. I was tinkering and sat and worked this
out after hearing the theme on the radio one day and its only my second tab. my
other is the Tales From The Crypt theme on this site aswell.

 Part A
e||------------------------------------------------------------------|
B||---------------------8-8--10-7-8------10-7-8--10-7-8-9-9-14-14----|
G||-7-7-6-7---7-6-7-9-9-------------9-9------------------------------|
D||------------------------------------------------------------------|
A||------------------------------------------------------------------|
E||------------------------------------------------------------------|

 Part B
e||------------------------------------------------------------------|
B||------------------------------------------------------------------|
G||-7-6-7-----7-6-7-------7-6-6-7------7r-6r-7-6-7-----7-6-7---------|
D||-------7-5--------7-5-----------7-5-------------7-5-------7-5-----|
A||------------------------------------------------------------------|
E||------------------------------------------------------------------|

 Part C
e||-------------------------|
B||-------------------------|
G||-7-6-6-7-----7r-6r-7r----|
D||---------7-5-------------|
A||-------------------------|   well thats it i'll try and update it soon.
E||-------------------------|

I am more than happy to hear suggestions so E-Mail me at madmattthe1st@aol.com,
any attachments will result in me deleting the mail
Im a little cautiouse about viruses since i got a paticualy nasty one a while ago.
Suggest correction
Give kudos to tab author, rate the tab!
1 2 3 4 5
comments
print report bad tab
guest
Wanna post a correction for this tab? Suggest correction