Oops, an error
Loading. Please wait.

Jurassic Park Theme Tab

version 6
version 6

Interactive

91,202 views 246 this week
14 commentsread comments
1 2 3 4 5
x 64
add to favorites
launch autoscroll
font size
0
reset
how to read this tab
guitar tuner
Autoscroll
slow
fast
+/-
esc
set tempo
stop
Help us to improve Ultimate-Guitar.com Take our survey!
×
Author
Difficulty
novice
Song: Jurassic Park Theme
Artist: John Williams

Tabbed by: dusty125

Tuning: Standard (EADGBe)

This is a beautiful sounding song and all the other tabs I've seen for it were lacking 
the original score.

The numbers in the () are extra notes I add to make it sound cool. They are optional and 
have to be played.

e|----------------------------------------------------1----------------|
B|---------------------1-1--4-4---3---1-------3---1-------4--3-3--1-1--|
G|--3~--3-2-3---3-2-3---------------3----2------3-------3--------------|
D|-----------------------------------------3---------------------------|
A|---------------------------------------------------------------------|
E|---------------------------------------------------------------------|

The next part is an octave higher.
e|----------------------------------8-8--11-11---10----8---------10----8--|
B|--11-10-11---11-10-11---11-10-11------------------11----10--------11----|
G|-----------------------------------------------------------10-----------|
D|------------------------------------------------------------------------|
A|------------------------------------------------------------------------|
E|------------------------------------------------------------------------|

e|--13----11--10-10--8-8--|
B|-----11-----------------|
G|------------------------|
D|------------------------|
A|------------------------|
E|------------------------|

Main Riff
e|--------------------------------------------------------|
B|--11-10-11-------11-10-11-------11-10-10h11-(11)-----9--|
G|-----------10-8-----------10-8------------------10------|
D|---------------------------------------------------8----|
A|--------------------------------------------------------|
E|--------------------------------------------------------|

e|--------------------------------------------11-10-11----------------------|
B|--11-10-11-------11-10-11-------11-10-11----------------11-10-11--10--11--|
G|-----------10-8-----------10-8--------------------------------------------|
D|--------------------------------------------------------------------------|
A|--------------------------------------------------------------------------|
E|--------------------------------------------------------------------------|

e|--------------------------------------------------------1----------------|
B|-------------------------1-1--4-4---3---1-------3---1-------4--3-3--1-1--|
G|--3-2-3---3-2-3---3-2-3---------------3----2------3-------3--------------|
D|---------------------------------------------3---------------------------|
A|-------------------------------------------------------------------------|
E|-------------------------------------------------------------------------|

e|------------------------------------13--11-10-11--|
B|--11-10-11---11-10-11---11-10-11------------------|
G|---------------------------------10---------------|
D|--------------------------------------------------|
A|--------------------------------------------------|
E|--------------------------------------------------|

e|--13----11--10-----13----11---13----11--10-----13-15-17--|
B|-----11--------13-----11---------11--------13------------|
G|---------------------------------------------------------|
D|---------------------------------------------------------|
A|---------------------------------------------------------|
E|---------------------------------------------------------|

e|--------------------------------------------------------|
B|--11-10-11-------11-10-11-------11-10-10h11-(11)-----9--|
G|-----------10-8-----------10-8------------------10------|
D|---------------------------------------------------8----|
A|--------------------------------------------------------|
E|--------------------------------------------------------|

e|-------------------------------------------------------------|
B|--11-10-11-------11-10-11-------11-10-10h11-(11)-----11--10--|
G|-----------10-8-----------10-8------------------10-----------|
D|---------------------------------------------------8---------|
A|-------------------------------------------------------------|
E|-------------------------------------------------------------|

e|-----------------------------------------------------------------------|
B|--11-10-11-------11-10-11-------11-10-10h11-(11)------11----10----11~--|
G|-----------10-8-----------10-8------------------8----------------------|
D|--------------------------------------------------10-------------------|
A|-----------------------------------------------------------------------|
E|-----------------------------------------------------------------------|

That's all. I ear-transcribed this while listening to the song so you might have to 
to it to get some of the timing right. Have fun playing this amazing song. Please rate high.



************************************

| (n)  Extra notes
| h    Hammer-on
| ~    Vibrato

************************************
Suggest correction
comments
print report bad tab
14 comments total. Showing first comments.
0 reply
UDontNoJacque 10 Mar 21, 2013 02:21 AM

This is the best tab ever created.XD Nice job!

0 reply
ryanosborne55 10 May 06, 2013 09:22 PM

Thank you so much for posting this amazing tab:)

0 reply
tbs41195 41 Jul 16, 2013 04:52 PM

i cant believe how accurate your tab is

guest
You may want to rate the tab now too:
select rating
Wanna post a correction for this tab? Suggest correction