Oops, an error
Loading. Please wait.

Jurrasic Park Theme Tab

version 1
version 1

Intro

Whole song

7,637 views 18 this week
4 commentsread comments
1 2 3 4 5
not so good
x 13
add to favorites
launch autoscroll
font size
0
reset
how to read this tab
guitar tuner
Autoscroll
slow
fast
+/-
esc
set tempo
stop
Help us to improve Ultimate-Guitar.com Take our survey!
×
Difficulty
novice
This my second tab ever so I hope you like this one too

Jurrasic Park

e--------------------------------------------------------1--0-------|
B--2--0--2--------2--0--2--------2--0--2--------2--0--2-------------|
G-----------0--------------0--3-----------0-------------------------|
D--------------3-----------------------------3----------------------|
A-------------------------------------------------------------------|
E-------------------------------------------------------------------|
Suggest correction
comments
print report bad tab
4 comments total. Showing first comments.
+3 reply
chelz 173 wrote on December 22 2007, 09:24 am

sorry but im pretty sure thats wrong

+1 reply
emailmen0w 10 wrote on July 17 2009, 04:36 pm

I could be wrong, but I think it sounds closer to:


e--------------------------------------------------------1--0-------|
B--1--0--1--------1--0--1--------1--0--1--------1--0--1-------------|
G-----------0--------------0--3-----------0-------------------------|
D--------------3-----------------------------3----------------------|
A-------------------------------------------------------------------|
E-------------------------------------------------------------------|

0 reply
sootyandblue 10 wrote on September 15 2015, 07:26 pm

Lack of accuracy. Tab incomplete. Clearly wrong. this is a terrible tab and sounds absolutely nothing like the song. This will mislead and confuse people as to why their Jurassic Park sounds Horibble

guest
You may want to rate the tab now too:
select rating
Wanna post a correction for this tab? Suggest correction