Oops, an error
Loading. Please wait.

Kanon - Shoujo No Ori Tab

16 views 6 this week
no commentswrite comment
1 2 3 4 5
3 more votes to show rating
add to favorites
launch autoscroll
font size
0
reset
how to read this tab
guitar tuner
Autoscroll
slow
fast
+/-
esc
set tempo
stop
Help us to improve Ultimate-Guitar.com Take our survey!
×
Author
Difficulty
novice
About this tab version
Mai's theme song from the Anime Kanon. Only version of this song on this site and only one tabbed on the internet. Hopefully you guys like it and feel free to leave your comments. Such a great anime and great story. Was this info helpful? Yes No

e|-----------------1h2---2------2h3---3----2-3-5-3-2----|
B|---------------0-----0------------2----------------2--|
G|-----4~---------------------3------------2------------|
D|----4-------------------------------------------------|
A|---5--------------------------------------------------|
E|--7---------------------------------------------------|


e|------------------------------------------------------|
B|--0----2-------0------------2------------0------------|
G|--2----3-------0------------3-------------------------|
D|-----------------------------------------4------------|
A|------------------------------------------------------|
E|------------------------------------------------------|


e|----2---2------3---3--------2-3-5-3-2-----------------|
B|------0----------2--------------------2--0----2-------|
G|------------------------------------------------------|
D|------------------------------------------------------|
A|------------------------------------------------------|
E|------------------------------------------------------|


e|-----5-2h3-2------------------------------------------|
B|--0----------3-----0-2-3-2-----0----------------------|
G|---------------2-----------2--------2-----------------|
D|-----------------4-----------4------------------------|
A|------------------------------------------------------|
E|------------------------------------------------------|


e|-----5-2h3-2------------------------------------------|
B|--2----------3-----0-2-3-2-----0----2-----------------|
G|---------------2-----------2--------------------------|
D|-----------------4-----------4------------------------|
A|------------------------------------------------------|
E|------------------------------------------------------|




Suggest correction
Give kudos to tab author, rate the tab!
1 2 3 4 5
comments
print report bad tab
guest
You may want to rate the tab now too:
select rating
Wanna post a correction for this tab? Suggest correction