Oops, an error
Loading. Please wait.

Kara Sevda - Kokun Hala Tenimde Tab

10 views 9 this week
no commentswrite comment
1 2 3 4 5
3 more votes to show rating
add to favorites
launch autoscroll
font size
0
reset
how to read this tab
guitar tuner
Autoscroll
slow
fast
+/-
esc
set tempo
stop
Help us to improve Ultimate-Guitar.com Take our survey!
×
Author
About this tab version
This is the soundtrack from the Tv-Show Kara Sevda. There could be some mistakes, i made it by ear. Was this info helpful? Yes No
[Intro]

e|-----------------------|
B|--------5h6p5~---3-1~--|
G|---5~------------------|
D|-----------------------|
A|-----------------------|
E|-----------------------|

[Verse]

E|-----------------------------------------|-----------------------5-----------------|
B|----5-5~--33/6-55~---33/6-55~--3-1-3-0---|----5-5~--33/6-55~---5---55~--3-1-0------|
G|-----------------------------------------|-----------------------------------------|
D|-7---------------------------------------|-7---------------------------------------|
A|-----------------------------------------|-----------------------------------------|
E|-----------------------------------------|-----------------------------------------|

E|---------------------------------------------------------|-------------------5-7-8-10|
B|------0-1-3-0-----------0-1-3-5-6-5----------0-1-3-0-----|------------5-6-8----------|
G|-4h5----------2----4h5-----------------4h5-----------2---|-----4-5-7-----------------|
D|---------------------------------------------------------|--7------------------------|
A|---------------------------------------------------------|---------------------------|
E|---------------------------------------------------------|---------------------------|

[Chorus]

E|-7h8~--8-7-55h7~---------12----12--------------10---------------------------------12----12---|
B|-------------------10-10----10----10-----10-12-----12/13---13-12-10-10-10/12----10--10----10-|
G|---------------------------------------------------------------------------------------------|
D|---------------------------------------------------------------------------------------------|
A|---------------------------------------------------------------------------------------------|
E|---------------------------------------------------------------------------------------------|

-

[Verse]

-

[Chorus]


************************************

| h  Hammer-on
| p  Pull-off
| ~  Vibrato
| /  Slide up

************************************
Suggest correction
Give kudos to tab author, rate the tab!
1 2 3 4 5
comments
print report bad tab
guest
You may want to rate the tab now too:
select rating
Wanna post a correction for this tab? Suggest correction