Oops, an error
Loading. Please wait.

Kickboxer - Advanced Training tab

43 views 1 this week
no commentswrite comment
1 2 3 4 5
3 more votes to show rating
add to favorites
×
Save as Personal and add changes to this tab that will be seen only by you. Learn more ›
×
You can save this tab as Personal to edit and correct it or add notes. All changes will be seen only by you. Learn more »
launch autoscroll
font size
0
reset
how to read this tab
guitar tuner
edit
Autoscroll
slow
fast
+/-
esc
set tempo
stop
Author
Difficulty
Misc Soundtrack

Kickboxer - Advanced Training

tabbed by:   Dropdeee
tuning:      Standard
video:       https://www.youtube.com/watch?v=Fo8lGfUWEyk  




 [Intro]

e|---12--10----------------------10---|
B|-----------12--10--12--10--12-------|
G|------------------------------------|
D|------------------------------------| x 8
A|------------------------------------|
E|------------------------------------|

e|-------------------|
B|--------8----------|
G|---9-----p7--9~~---| x 4
D|-------------------|
A|-------------------|
E|-------------------|

e|-----------------|--------------------------|------------|-----------------|
B|--------8--------|--------------------------|------------|-----------------|
G|---9-----p7--9---|---9--7----7---7------7-9-|----------7-|-----------------|
D|-----------------|-------------9------------|-9------9---|-9--9--7---------|
A|-----------------|--------------------------|------------|-----------------|
E|-----------------|--------------------------|------------|-----------------|

e|-------------------------|-7--5-------------|-7--5-------------|-7--5-----------|
B|--------8----------7---8-|------------------|------------------|--------------8-|
G|---9-----p7--9-----------|-------7------9p7-|-------7------9p7-|-------7----9---|
D|-------------------------|------------------|------------------|----------------|
A|-------------------------|------------------|------------------|----------------|
E|-------------------------|------------------|------------------|----------------|

e|----------------|-------------------10-|
B|--------8-------|------------10--12----|
G|---9-----p7--9--|-----9--12------------|
D|----------------|-12-------------------|
A|----------------|----------------------|
E|----------------|----------------------|
                  [-- WOOD FLUTE INTRO --]

e|-12-12-12---10p7-|-10-7~~-------|-10-7~~-------|-10-7~~-------|   |-------10-12-|
B|-----------------|---------10p8-|---------10p8-|--------------|   |-10-12-------|
G|-----------------|--------------|--------------|--------------|   |-------------|
D|-----------------|--------------|--------------|--------------|   |-------------|
A|-----------------|--------------|--------------|--------------|   |-------------|
E|-----------------|--------------|--------------|--------------|   |-------------|

e|--13~~-----12p10-|-12~hbr-------|-10~hbr-------|--------------|
B|-----------------|--------10----|--------------|-8------------|
G|-----------------|--------------|--------------|-------10--8--|
D|-----------------|--------------|--------------|--------------|
A|-----------------|--------------|--------------|--------------|
E|-----------------|--------------|--------------|--------------|

e|-----------------|--------------|--------------|--------------|
B|-----------------|--------------|--------------|--------------|
G|--10-------------|--8-----/7--5-|-7------------|-8------7--5--|
D|----------8------|--------------|--------------|--------------|
A|-----------------|--------------|--------------|--------------|
E|-----------------|--------------|--------------|--------------|

e|-----------------|--------------|
B|-----------------|--------------|
G|-7---------------|--------------|
D|---------5-------|-7------------|
A|-----------------|--------------|
E|-----------------|--------------|

e|-----------------|--------------|------------------------|-10-8------------|
B|------11---------|--------------|-----11-----------10-11-|-----------------|
G|--12----p10-12---|-12-10--------|-12----p10-12-----------|--------10-------|
D|-----------------|---------12---|------------------------|-----------------|
A|-----------------|--------------|------------------------|-----------------|
E|-----------------|--------------|------------------------|-----------------|

e|------------------------|--------------|-15--h17p15-h17p15~|~~~~~~~~-------|
B|------11----------10-11-|--------------|-------------------|---------------|
G|--12----p10-12----------|-12-----------|-------------------|---------------|
D|------------------------|--------------|-------------------|---------------|
A|------------------------|--------------|-------------------|---------------|
E|------------------------|--------------|-------------------|---------------|

 

 [Bongo Drum Break]



 [Bass Buildup]
e|--------------------|--------------------|
B|--------------------|--------------------|
G|--------------------|--------------------|
D|--------------------|--------------------| x 3
A|---------------8----|--------------10----|
E|--8-10---8---8---10-|-8-10---8---8----10-|


e|-------------------|-------------------------|-------------------|---------------------|
B|-----11------------|-------------------------|-11-11-------------|-10-10-10------------|
G|-12----p10-12----12|-12-10---10---10----10h12|-------12~~---12p10|----------10----12p10|
D|-------------------|-----------h12-----------|-------------------|---------------------|
A|-------------------|-------------------------|-------------------|---------------------|
E|-------------------|-------------------------|-------------------|---------------------|

e|----------------------10|-10-10----10--10-10-13p10----|
B|-11-11-11----13-13------|-----------------------------|
G|----------12-------12---|-------12-----------------12-|
D|------------------------|-----------------------------|
A|------------------------|-----------------------------|
E|------------------------|-----------------------------|

e|-------------------|-------------------|-------------------|-----------------|
B|-----11------------|-------------------|-------------------|-----------------|
G|-12----p10-12----12|-12p10--10----10h12|--------------10h12|-----------------|
D|-------------------|-------------------|-12----------------|-12-10--10-------|
A|-------------------|-------------------|----10--10---------|-----------------|
E|-------------------|-------------------|-------------------|-----------------|

e|--15~~-g17p15------|-17p15--------12p10|-12-12-12-----10-12|
B|-------------------|--------15---------|-----------12------|
G|-------------------|-------------------|-------------------|
D|-------------------|-------------------|-------------------|
A|-------------------|-------------------|-------------------|
E|-------------------|-------------------|-------------------|

e|-15--17--15------12|-12/10--10----10---10h12|------------------|--------------------------------15-17-|
B|-------------------|----------h12-----------|-12----------12h15|-12----12---15p12-15--17p15-17--------|
G|-------------------|------------------------|----9--9----------|---h14--------------------------------|
D|-------------------|------------------------|------------------|--------------------------------------|
A|-------------------|------------------------|------------------|--------------------------------------|
E|-------------------|------------------------|------------------|--------------------------------------|

e|-17-17p15-12--15---|-------------------|-------------------|-----------------|
B|-----------------15|-17~~~~~~~---------|-------------------|-----------------|
G|-------------------|-------------------|-------------------|-----------------|
D|-------------------|-------------------|-------------------|-----------------|
A|-------------------|-------------------|-------------------|-----------------|
E|-------------------|-------------------|-------------------|-----------------|
 
 [Outro]                                         
e|-------------------|-------------------|-------------------|-----------------|
B|-------------------|-------------------|---------------8-6-|-9-8--------13---|
G|--9----------------|--9--7-------------|--9--7-------------|---------------10|
D|-------------------|-------------------|-------------------|-----------------|
A|-------------------|-------------------|-------------------|-----------------|
E|-------------------|-------------------|-------------------|-----------------|

e|-------------------|-------------------|-------------------|-----------------|
B|-11------------9---|-13----------------|-14-----------14---|-16---------16---|
G|----10-----------10|----10-------------|----11-----------11|----13---------13|
D|-------------------|-------------------|-------------------|-----------------|
A|-------------------|-------------------|-------------------|-----------------|
E|-------------------|-------------------|-------------------|-----------------|

e|-------------------|-13----13-15--15----15|--17-------17-17----17---|------------|
B|-17----------------|----11-----------15---|-----18-18-------18----18|------------|
G|-------------------|----------------------|-------------------------|------------|
D|-------------------|----------------------|-------------------------|------------|
A|-------------------|----------------------|-------------------------|------------|
E|-------------------|----------------------|-------------------------|------------|

e|-------------------|----------------------|-------------------------|-5----------|
B|-------------------|-------------------8~~|~~~~~~~~~----------------|------------|
G|-------------------|-10p7-10--10p7-10-----|-------------------------|------------|
D|-10p8-10---12p10-12|----------------------|-------------------------|------------|
A|-------------------|----------------------|-------------------------|------------|
E|-------------------|----------------------|-------------------------|------------|

e|-------------------|----------------------|-------------------------|-5----------|
B|-6-----------------|----------------------|-------------------------|-6----------|
G|-------------------|-5----------------ring through------------------|-7----------|
D|-------------------|----------------------|-------------------------|-7----------|
A|-------------------|----------------------|-------------------------|------------|
E|-------------------|----------------------|-------------------------|------------|




************************************

| g   Grace note
| h   Hammer-on
| p   Pull-off
| r   Release
| /   Slide up
| \   Slide down
| ~   Vibrato


************************************
Suggest correction
Creating personal tab
Creating personal tab
You can edit any tab online and save it as your Personal.

You can edit, replace or remove any tab part or add personal notes – all changes will be seen only by you.

Personal tabs can be accessed anytime from any device, even offline.
Learn more »
Give kudos to tab author, rate the tab!
1 2 3 4 5
comments
print report bad tab
guest
You may want to rate the tab now too:
select rating
Wanna post a correction for this tab? Suggest correction