Oops, an error
Loading. Please wait.

Kill Bill - The Whistling Song Tab

version 1
version 1

Intro

40,994 views 222 this week
4 commentsread comments
1 2 3 4 5
x 21
add to favorites
launch autoscroll
font size
0
reset
how to read this tab
guitar tuner
×
Best way to learn
"Kill Bill - The Whistling Song"
Autoscroll
slow
fast
+/-
esc
set tempo
stop
Author
Tuning
  follow
E A D G B E
[Intro]
E|0----0-0-----------------0-0-----0-0----------------------|
B|--3------3---3-1--3-3-1------3-3-----3---3-3--1-1--3-3--1-|
G|----------------------------------------------------------|
D|----------------------------------------------------------|
A|----------------------------------------------------------|
E|----------------------------------------------------------|

E|------------------------------1--------0---------0---------|
B|3s1--3-4--3s1--3-4--3s1--3-4-------1-3---3--1--3---3-------|
G|-----------------------------------------------------------|
D|-----------------------------------------------------------|
A|-----------------------------------------------------------|
E|-----------------------------------------------------------|

E|------0---------0----------------------------------------|
B|1--3-----3---1-------------------------------------------|
G|---------------------------------------------------------|
D|---------------------------------------------------------|
A|---------------------------------------------------------|
E|---------------------------------------------------------|
Suggest correction
comments
print report bad tab
4 comments total. Showing first comments.
+1 reply
Belgian Bastard 51 Aug 14, 2006 03:44 AM

So far so good, except I think there is one thing I'm unsure about:
E ------------------------------1--0-0---------------------|
B 3s1--3-4--3s1--3-4--3s1--3-4-----------------------------|
G ---------------------------------------------------------|
D ---------------------------------------------------------|
A ---------------------------------------------------------|
E ---------------------------------------------------------|

Those open strings at the end sound strange.

0 reply
ptrlix 10 Feb 06, 2013 05:54 AM

except for the last three notes, it's cool.

+1 reply
viclss 10 May 09, 2013 11:36 AM

put a capo on the 7th fret and play it, it sounds better to me.

guest
You may want to rate the tab now too:
select rating
Wanna post a correction for this tab? Suggest correction