Oops, an error
Loading. Please wait.

Kill Bill - The Whistling Song Tab

version 1
version 1

Intro

39,425 views 162 this week
4 commentsread comments
1 2 3 4 5
x 19
add to favorites
launch autoscroll
font size
0
reset
how to read this tab
guitar tuner
Autoscroll
slow
fast
+/-
esc
set tempo
stop
Help us to improve Ultimate-Guitar.com Take our survey!
×
Author
[Intro]
E|0----0-0-----------------0-0-----0-0----------------------|
B|--3------3---3-1--3-3-1------3-3-----3---3-3--1-1--3-3--1-|
G|----------------------------------------------------------|
D|----------------------------------------------------------|
A|----------------------------------------------------------|
E|----------------------------------------------------------|

E|------------------------------1--0-0---------------------|
B|3s1--3-4--3s1--3-4--3s1--3-4-----------------------------|
G|---------------------------------------------------------|
D|---------------------------------------------------------|
A|---------------------------------------------------------|
E|---------------------------------------------------------|
Suggest correction
comments
print report bad tab
4 comments total. Showing first comments.
+1 reply
Belgian Bastard 51 Aug 14, 2006 07:44 AM

So far so good, except I think there is one thing I'm unsure about:
E ------------------------------1--0-0---------------------|
B 3s1--3-4--3s1--3-4--3s1--3-4-----------------------------|
G ---------------------------------------------------------|
D ---------------------------------------------------------|
A ---------------------------------------------------------|
E ---------------------------------------------------------|

Those open strings at the end sound strange.

0 reply
ptrlix 10 Feb 06, 2013 10:54 AM

except for the last three notes, it's cool.

+1 reply
viclss 10 May 09, 2013 03:36 PM

put a capo on the 7th fret and play it, it sounds better to me.

guest
You may want to rate the tab now too:
select rating
Wanna post a correction for this tab? Suggest correction