Oops, an error
Loading. Please wait.

Kill Bill - Twisted Nerve Tab

version 1
version 1

Whole song

Interactive

18,766 views 105 this week
no commentswrite comment
1 2 3 4 5
x 13
add to favorites
launch autoscroll
font size
0
reset
how to read this tab
guitar tuner
Autoscroll
slow
fast
+/-
esc
set tempo
stop
Help us to improve Ultimate-Guitar.com Take our survey!
×
Difficulty
novice
e|--7----------7--7--------|--------------------------|
B|-------10----------10----|--10----8----10--10--8----|
G|-------------------------|--------------------------|
D|-------------------------|--------------------------|
A|-------------------------|--------------------------|
E|-------------------------|--------------------------|

e|--7--7----------7--7--------|-----------------------------|
B|--------10--10--------10----|--10--10--8--8--10--10--8----|
G|----------------------------|-----------------------------|
D|----------------------------|-----------------------------|
A|----------------------------|-----------------------------|
E|----------------------------|-----------------------------|

e|----------------------------|-------------------------|
B|--8/7----7--8--8/7----7--8--|--8/7----7--8--10--------|
G|------9------------9--------|------9------------------|
D|----------------------------|-------------------------|
A|----------------------------|-------------------------|
E|----------------------------|-------------------------|

e|---------7-------------7------|---------7------7--------|
B|--8--10-----10--8--10-----10--|--8--10-----10-----------|
G|------------------------------|-------------------------|
D|------------------------------|-------------------------|
A|------------------------------|-------------------------|
E|------------------------------|-------------------------|

e|--7----------7--7--------|--------------------------|
B|-------10----------10----|--10----8----10--10--8----|
G|-------------------------|--------------------------|
D|-------------------------|--------------------------|
A|-------------------------|--------------------------|
E|-------------------------|--------------------------|

e|--7--7----------7--7--------|-----------------------------|
B|--------10--10--------10----|--10--10--8--8--10--10--8----|
G|----------------------------|-----------------------------|
D|----------------------------|-----------------------------|
A|----------------------------|-----------------------------|
E|----------------------------|-----------------------------|

e|--12----10----12--12--10----|--12----10----12--12--10----|
B|----------------------------|----------------------------|
G|----------------------------|----------------------------|
D|----------------------------|----------------------------|
A|----------------------------|----------------------------|
E|----------------------------|----------------------------|

e|--12--------10--------|--12--------10--------|--12----------------|
B|----------------------|----------------------|--------------------|
G|----------------------|----------------------|--------------------|
D|----------------------|----------------------|--------------------|
A|----------------------|----------------------|--------------------|
E|----------------------|----------------------|--------------------|

************************************

| /  Slide up

************************************
Suggest correction
comments
print report bad tab
guest
You may want to rate the tab now too:
select rating
Wanna post a correction for this tab? Suggest correction