Oops, an error
Loading. Please wait.

Kill Bill Theme Tab

41,061 views 135 this week
9 commentsread comments
1 2 3 4 5
accurate
x 9
add to favorites
launch autoscroll
font size
0
reset
how to read this tab
guitar tuner
Autoscroll
slow
fast
+/-
esc
set tempo
stop
Help us to improve Ultimate-Guitar.com Take our survey!
×
This has to be one of the best soundtracks ever and I couldn't find the tab
for it so I thought id do it myself. I haven't managed too get the whole thing
but Im working on the rest.

1st guitar
e--------------------------------------------------------|
B--------------------------------------------------------|
G--------------------------------------------------------|
D--------------------------------------------------------|
A-----5h7------------------------5h7---------------------|
E-----------0-0-0-0-0-0-0-0-0-0-----0-0-0-0-0-0-0-0-0-0--| play this a few times


e------3-------2-------------------------------------------------------------|
B------0-------2-------------------------------------------------------------|
G------0-------2-------------------------------------------------------------|
D------0--------------2------------------------------------------------------|
A------2--------------2---------------------------------5h7------------------|
E------3----------------------0-0-0-0-0-0-0-0-0-----------0-0-0-0-0-0-0-0-0--|

2nd guitar

e----------------------------------------------------------------------------|
B----12------12---10-8-------------------------------------------------------|
G----------------------------14b----14--12--11--9--9--12---16--14------------|
D----------------------------------------------------------------------------|
A----------------------------------------------------------------------------|
E----------------------------------------------------------------------------|

e---------------------------------------------------------------------------|
B----12------12---10-8------------------------------------------------------|
G----------------------------14b----14--12--11-9---9--12--------------------|
D-----------------------------------------------------------------12----11--|
A---------------------------------------------------------------------------|
E---------------------------------------------------------------------------|


ill try and update this tab when i work out the rest, its my first tab so im not sure if 
100% but it'll do me
Suggest correction
comments
print report bad tab
9 comments total. Showing first comments.
0 reply
GAC1989 130 wrote on July 17 2005, 12:00 am

the chord porgression is G A E

0 reply
kierangrant 103 wrote on January 16 2006, 03:25 pm

first section is palm muted otherwise great tab well done

0 reply
Artorius 51 wrote on July 28 2006, 05:44 am

i tried this:

----------------------------------------------------------
--12----12----10----8----12----10---------10----8---------
-----------------------------------------------------11---
----------------------------------------------------------
----------------------------------------------------------
----------------------------------------------------------

----------------------------------------------------------
---------------12----10-----------------------------------
----9----11----------------(9)----------------------------
----------------------------------------------------------
----------------------------------------------------------
----------------------------------------------------------

----------------------------------------------------------
--12----12----10----8----12----10---------10----8---------
-----------------------------------------------------11---
----------------------------------------------------------
----------------------------------------------------------
----------------------------------------------------------

----------------------------------------------------------
----------------------------------------------------------
----9----12-----------------------------------------------
---------------12----11-----------------------------------
----------------------------------------------------------
----------------------------------------------------------

guest
You may want to rate the tab now too:
select rating
Wanna post a correction for this tab? Suggest correction