Oops, an error
Loading. Please wait.

King Of The Hill Theme Tab

version 11
version 11
2,489 views 1 this week
2 commentsread comments
1 2 3 4 5
x 4
add to favorites
launch autoscroll
font size
0
reset
how to read this tab
guitar tuner
Autoscroll
slow
fast
+/-
esc
set tempo
stop
Help us to improve Ultimate-Guitar.com Take our survey!
×
i got bored so i tabbed this

Intro
e|--0-0---------|
B|--2-2---------|
G|--2-2-----1-1-|
D|--2-2-----2-2-|
A|0---------2-2-|
E|--------0-----|

verse thingy    your smart you'll figure the rythem out... play FAST
e|-----------------------------------------------------|
B|-----------------------------------------------------|
G|-----------------------------------------------------|
D|----------------------4-4----------------------------|
A|2-2222-4-2222--7-777--6-2-2-2222-4-2222-77-66-44-66--|
E|0-0000-6-0000--5-555------0-0000-6-0000-55-44-22-44--|

e|-----------------------------------------------------|
B|-----------------------------------------------------|
G|-----------------------------------------------------|
D|---------------------4-4--99-44-44-------------------|
A|2-2222-4-2222-7-777--6-2--77-66-22-77-66-7-6-4-2-2---|
E|0-0000-6-0000-5-555----------------55-44-5-4-2-0-0---|

e|---------------------------------------------------------|
B|---------------------------------------------------------|
G|---------------------------------------------------------|
D|4--4--4--4-----------------------------------------------|
A|6--6--6--6--4--4--4--4--7-777-7777-7777--999-777-666-444-|
E|------------6--6--6--6--5-555-5555-5555--777-555-444-222-|

e|-----------------------------------------------------|
B|-----------------------------------------------------|
G|-----------------------------------------------------|
D|---------------------4-4--99-44-44-------------------|
A|2-2222-4-2222-7-777--6-2--77-66-22-77-66-7-6-4-2-2---|
E|0-0000-6-0000-5-555----------------55-44-5-4-2-0-0---|
Suggest correction
comments
print report bad tab
2 comments total.
0 reply
westvipor 10 Jun 28, 2007 02:49 PM

very good

0 reply
drummerdawg77 41 Sep 12, 2008 10:00 PM

what a horrible tab..

guest
You may want to rate the tab now too:
select rating
Wanna post a correction for this tab? Suggest correction