Oops, an error
Loading. Please wait.

King Of The Hill Theme Tab

version 3
version 3
5,432 views 3 this week
2 commentsread comments
1 2 3 4 5
x 5
add to favorites
launch autoscroll
font size
0
reset
how to read this tab
guitar tuner
Autoscroll
slow
fast
+/-
esc
set tempo
stop
Help us to improve Ultimate-Guitar.com Take our survey!
×
Author
------------------------------------------------------------
                  THEME - KING OF THE HILL
------------------------------------------------------------

By:EDWARD HARPER,EMAIL ME AT guitarist_of_2002@yahoo.com if you have any questions 

e|---------------------------------------------------------|
B|---------------------------------------------------------|
G|---------------------------------------------------------|
D|---------------------------------------------------------|
A|----------------------4-2--------------------------------|
E|-0-0-0-4-0-0-0-5-5-5------0-0-0-4-0-0-0-5-4-2-4-2--------|

e|---------------------------------------------------------|
B|---------------------------------------------------------|
G|---------------------------------------------------------|
D|---------------------------------------------------------|
A|---------------------4-2--7------------------------------|
E|-0-0-0-4-0-0-0-5-5-5--------9-7-5-4-4-4-5-4-0------------|

e|---------------------------------------------------------|
B|---------------------------------------------------------|
G|-6-6-6-6-------------------------------------------------|
D|-6-6-6-6-6-6-6-6--7-7-7-7-7-7-7-7-9-9-9-9-9-9-9-9--------|
A| 4-4-4-4-6-6-6-6--7-7-7-7-7-7-7-7-9-9-9-9-9-9-9-9--------|
E|---------4-4-4-4--5-5-5-5-5-5-5-5-7-7-7-7-7-7-7-7--------|

e|---------------------------------------------0-0--------|
B|---------------------------------------------0-0--------|
G|---------------------------------------------9-9--------| 
D|---------------------------------------------9-9--------| 
A|---------------------4-2-7------------------------------| 
E|-0-0-0-4-0-0-0-5-5-5-------9-7-5-4-4-4-5-4-0------------|  
this is 100% right
Suggest correction
comments
print report bad tab
2 comments total.
0 reply
landon 10 Jun 08, 2002 12:00 AM

A)-0-0-0-0-4-0-0-0-5--9--7


A)0-0-0-0-4-0-0-0-5-4-2-4-2


A)0-0-0-0-4-0-0-0-5--9-7

A)-12-12-9-9-7-7-5-5-4-5-4-2-0-12-12-

0 reply
AmericanZero 10 Feb 20, 2003 12:00 AM

e|--------------------------------
B|--------------------------------
G|--------------------------------
D|--------------------------------
A|2-222-22-6-222-22-7-776-66-4-6-4
E|0-000-00-4-000-22-5-554-44-2-4-2

guest
You may want to rate the tab now too:
select rating
Wanna post a correction for this tab? Suggest correction