Oops, an error
Loading. Please wait.

King Of The Hill Theme Tab

version 6
version 6
226,142 views 285 this week
59 commentsread comments
1 2 3 4 5
x 202
add to favorites
launch autoscroll
font size
0
reset
how to read this tab
guitar tuner
Autoscroll
slow
fast
+/-
esc
set tempo
stop
Help us to improve Ultimate-Guitar.com Take our survey!
×
[Intro]  Clean, kinda 3/4 feel

    A           E
e|------0--0--------0--------------------|
B|------2--2--------0--------------------|
G|------2--2--------1--------------------|
D|------2--2--------2--------------------|
A|--0---------------2--------------------|
E|--------------0------------------------|
                        let ring........

Dirty, faster, marching rhythm.

  1   2   3   4    1   2   3   4    1   2   3   4    1   2   3   4
e|----------------|----------------|----------------|-----------------|
B|----------------|----------------|----------------|-----------------|
G|----------------|----------------|----------------|-----------------|
D|----------------|----------------|----------------|-----------------|
A|----------------|0-000-4-2-------|----------------|0-0--------------|
E|0-000-0-4-000-0-|----------------|0-000-0-4-000-0-|----4-4-2-2-4-2--|

  1   2   3   4    1   2   3   4    1   2   3   4    1   2   3   4
e|----------------|----------------|----------------|-----------------|
B|----------------|----------------|----------------|-----------------|
G|----------------|----------------|----------------|----------6-6-6--|
D|----------------|----------------|2-2-------------|----------6-6-6--|
A|----------------|0-000-4-2-------|----4-4-2-2-0-0-|----0-----4-4-4--|
E|0-000-0-4-000-0-|----------------|----------------|4-4---2-0--------|

  Staccato, eighth note feel        Let ring
  1   2   3   4    1   2   3   4    1   2   3   4    1   2   3   4
e|----------------|----------------|----------------|-----------------|
B|----------------|----------------|----------------|-----------------|
G|6---6---6---6---|----------------|----------------|-----------------|
D|6---6---6---6---|6---6---6---6---|7-7-7777--7-7-7-|9-9-7-7-6-6-4-4--|
A|4---4---4---4---|6---6---6---6---|7-7-7777--7-7-7-|9-9-7-7-6-6-4-4--|
E|----------------|4---4---4---4---|5-5-5555--5-5-5-|7-7-5-5-4-4-2-2--|

  1   2   3   4          1   2   3   4      1   2   3   4    1   2   3   4
e|--------------------|------------------|----------------|-----------------|
B|--------------------|------------------|----------------|-----------------|
G|--------------------|------------------|----------------|-----------------|
D|--------------------|------------------|2-2-------------|----------2-2----|
A|--------------------|0-0-0-0-4-2-------|----4-4-2-2-0-0-|----0-----2-2----|
E|0-0-0-0-0-4-0-0-0-0-|------------------|----------------|4-4---2---0-0----|
Suggest correction
comments
print report bad tab
59 comments total. Showing first comments.
+3 reply
rocker14 10 Mar 20, 2004 12:00 AM

wicked tab but no one has the solo

+7 reply
extrememan 50 May 22, 2004 12:00 AM

dammit peggy that rocked

+4 reply
yeahiplay 10 Aug 23, 2004 12:00 AM

God dangit Bobby! That was good.

guest
You may want to rate the tab now too:
select rating
Wanna post a correction for this tab? Suggest correction