Oops, an error
Loading. Please wait.

King Of The Hill Theme Tab

version 9
version 9
1,369 views 1 this week
no commentswrite comment
1 2 3 4 5
2 more votes to show rating
add to favorites
launch autoscroll
font size
0
reset
how to read this tab
guitar tuner
Autoscroll
slow
fast
+/-
esc
set tempo
stop
Help us to improve Ultimate-Guitar.com Take our survey!
×
Author
Title: King of the Hill Theme
Tabbed by: Lord Grieve

Alright here you go this is everything and i guarantee its almost correct except
for the little solo that I  haven't included.

Part 1:

E-------------------------------------------------------------------------00-
B-------------------------------------------------------------------------00-
G-------------------------------------------------------------------------99-
D----------------------------------------------------------9-6------------99-
A-----------000-4-2--------------------------------000-4-2-7-4-9-7-666-4-2---
E-0000-4-00---------0000-4-00-555-42-4-2-0000-4-00-------------7-5-444-2-0---

Part 2:

E-4x-4x-4x-4x-4x-4x-4x-4x-5x-5x-5x-5x---------------------------------------
B-5x-5x-5x-5x-4x-4x-4x-4x-5x-5x-5x-5x---------------------------------------
G-6x-6x-6x-6x-5x-5x-5x-5x-6x-6x-6x-6x---------------------------------------
D-6x-6x-6x-6x-6x-6x-6x-6x-7x-7x-7x-7x---------------------------------------
A-4x-4x-4x-4x-6x-6x-6x-6x-7x-7x-7x-7x---------------------------------------
E-------------4x-4x-4x-4x-5x-5x-5x-5x---------------------------------------

Part 3:


E-10101010--5555------------------------------------------------------------
B-10101010--5555------------------------------------------------------------
G-11111111--6666------------------------------------------------------------
D-12121212--7777------------------------------------------------------------
A-12121212--7777------------------------------------------------------------
E-10101010--5555------------------------------------------------------------

Part 4:


E-4x-4x-4x-4x-4x-4x-4x-4x-5-----------7-------------------------------------
B-5x-5x-5x-5x-4x-4x-4x-4x-5-----------7-------------------------------------
G-6x-6x-6x-6x-5x-5x-5x-5x-6-----------8-------------------------------------
D-6x-6x-6x-6x-6x-6x-6x-6x-7-8-times---9-8-times-----------------------------
A-4x-4x-4x-4x-6x-6x-6x-6x-7-----------9-------------------------------------
E-------------4x-4x-4x-4x-5-----------7-------------------------------------

Part 5:

E---------------------------------------------------------------------------
B---------------------------------------------------------------------------
G------------222-6-4-------------------------------------222-6-4------------
D-2222-6-222-222-6-4-2222-6-222-777-6-4--6--4-2222-6-222-222-6-4-9-6--------
A-2222-6-222-000-4-2-2222-6-222-777-6-4--6--4-2222-6-222-000-4-2-7-4-9-7-666
E-0000-4-000---------0000-4-000-555-4-2--4--2-0000-4-000-------------7-5-444

E------00-------------------------------------------------------------------
B------00-------------------------------------------------------------------
G------99-------------------------------------------------------------------
D------99-------------------------------------------------------------------
A-4-2-----------------------------------------------------------------------
E-2-0-----------------------------------------------------------------------

Part 2
Part 3
Part 4
Part 5
Part 2
Part 3
Part 4
Part 5
Part 2
Part 3
Part 4
Part 5
'
There you go. If you download this theme off Kazaa I'm sure that you'll see it's right.
Suggest correction
Give kudos to tab author, rate the tab!
1 2 3 4 5
comments
print report bad tab
guest
You may want to rate the tab now too:
select rating
Wanna post a correction for this tab? Suggest correction