Oops, an error
Loading. Please wait.

La La Land - City Of Stars solo tab

version 1
version 1

Solo

  • The fingerstyle Tab i arranged for my youtube chan... Show more

Whole song

  • This is a really accurate tab from the La La Land ... Show more
  • In the original key, follows piano line pretty exa... Show more
  • This specific tab is based off this cover (https:/... Show more
  • This version was made by Kangho Lee.

Interactive

26,167 views 258 this week
no commentswrite comment
1 2 3 4 5
x 19
add to favorites
×
Save as Personal and add changes to this tab that will be seen only by you. Learn more ›
×
You can save this tab as Personal to edit and correct it or add notes. All changes will be seen only by you. Learn more »
launch autoscroll
font size
0
reset
how to read this tab
guitar tuner
edit
Autoscroll
slow
fast
+/-
esc
set tempo
stop
City of Stars (Ryan Gosling and Emma Stone - La La Land) Fingerstyle Tab
standard tuning
Capo on fret three. (Fret numbers are in relation to capo)


[Intro] 
  Em 
e|-------0-0-----|
B|-----------3-0-|
G|-----0---------|
D|-2-0-----------|  (PLAY 4 TIMES)
A|----0----------|
E|-0-------------|


[Verse 1] 
   Em           A              Bm                            Em          A            
e|-------------------------------------------------------------------------------------|
B|-------0-0----2-2-3-0-2---0--------3-3-2----------3-3-2---------0-0----2-2-3-0-2---0-|
G|------0---2-0-2---------2--------2-------2------2-------2------0---2-0-2---------2---|
D|--2/4---------2----------------4--------------4------------2/4---------2-------------|
A|-----------------------------2--------------2----------------------------------------|
E|--0--------------------------------------------------------0-------------------------|

       D                               Em          A                  D D7 Bm  G   F#   
e|-------------------------------------------------------------------------2-0---------h2p0---|
B|--------3-3-2-----------3-3-2------------0---3-2------0---0---0-------3----0-0-----2------3-|
G|---0-h2-------2----0-h2-------2----0---0---0---2--2-2---2---2---2-2-2----------3-3----------|
D|--0--------------0------------4--2---2---------2------------------4-2----------4------------|
A|-------------------------------------------------0--------------------2--------4------------|
E|-----------------------------------0---------------------------------------3----------------|
 
[Interlude]
   Bm
e|--------------------------------|
B|--0-----------------------------|
G|--------4-4-2----------4-4-2----|
D|--------------4--------------4--|
A|--2-4-5----------0-4-5----------|
E|--------------------------------|

[Verse 2]
   Em           A              Bm                           Em          A          
e|------------3---------------------------------------------------------------------------|
B|-------0-0----2---3-0-2---0-----------3-3-2---------------------0---5-2---3-0-2---0-----|
G|------0---0---2---------2---0-2-----2-------2------2-4-2------0---0---2---------2---0-2-|
D|--2/4---------2-------------------4--------------4---3-2--2/4---------2-----------------|
A|----------------0---------------2--------------2------------------------0---------------|
E|--0-------------------------------------------------------0-----------------------------|
 
    D D7 D      G       A                 D  D7  Bm    G         F# 
e|--------------------0-------------------2-5-2-5-2--2-0--0-----------2-|
B|------------------3---2---3-0-2---0-----3---2---3----0----0--0-2------|
G|--2-2-2-----2-0-0-----2---------2---0-2------------------------3--3---|
D|--4-2-0-0-0---0-------2-----------------0-----------------------------|
A|------------------------0-----------------------2--------------4------|
E|--------------3--------------------------------------3----------------|
 
[Chorus] 
    G           A           F#        Bm                G         A           Bm 
e|----------------------------------------------------------------------------2---------2-------------------|
B|----0-0-0---0-2---2-2-0-2-2-2-2-0-2-3---3-2--2-0------0-0-0---0-2---2-2-0-2-3---------3---3-2-2-0-0-------|
G|--0-0-0-0-2---2---2-2-0-2-3-3-3-0-3-4---4-0--0-0-2--0-0-0-0-2---2---2-2-0-2---------------4-0-0-0-0-2-0-2-|
D|----------0--------------------------------------0----------0---------------------------------------0-0-0-|
A|--------------0-0-0-0---4-4-4-4-------2---------------------------0-----------2-2-2-2---2---0-0-0-0-0-0-0-|
E|----3-3-3---------------------------------------------3---------------------------------------------------|

      G         A          F#             Bm            G                      F#          
e|------------------------------------------------------------------|          |------2-0-----|
B|----0-0-0---0-2---2-2-0-2-2-2-2-0-2-3---3-2--2-0------0-0-0---0-2-|          |----2------3--|
G|--0-0-0-0-2---2---2-2-0-2-3-3-3-0-3-4---4-0--0-0-2--0-0-0-0-2-0-3-| STRUM F# |--3-----------|
D|----------0--------------------------------------0----------0-----|          |--------------|
A|--------------0-0-0-0---4-4-4-4-------2---------------------------|          |--------------|
E|----3-3-3---------------------------------------------3-----------|          |--------------|

[Ending]
    Em                                           A              D           
e|--------------------------------------------------------------------------------------------|
B|--0-----------------------------------0--0-----2-2-3-0-2---0-------3--3-2---------3--3-2----|
G|--------4-4-2----------4-4-2--------0------2---2---------2-----0h2--------2---0h2--------2--|
D|--------------4--------------4--2/4----------0-2-------------4--------------0---------------|
A|--2-4-5----------0-4-5----------------------------------------------------------------------|
E|--------------------------------0-----------------------------------------------------------|

    Em                 F#            Em 
e|---------|          |--------2-0----------------------------------|
B|-------0-|          |------2-----3-0------------------------------|
G|------0--| STRUM F# |--3-3---------------4--4-2---------4--4-2----|
D|--2/4----|          |---------------------------4--------------4--|
A|---------|          |--------------2-4-5----------2-4-5-----------|
E|--0------|          |---------------------------------------------|



************************************

| /  Slide up
| h  Hammer-on
| p  Pull-off 

************************************
Suggest correction
Creating personal tab
Creating personal tab
You can edit any tab online and save it as your Personal.

You can edit, replace or remove any tab part or add personal notes – all changes will be seen only by you.

Personal tabs can be accessed anytime from any device, even offline.
Learn more »
comments
print report bad tab
guest
You may want to rate the tab now too:
select rating
Wanna post a correction for this tab? Suggest correction