Oops, an error
Loading. Please wait.

La La Land - City Of Stars tab

version 2
version 2

Whole song

  • This is a really accurate tab from the La La Land ... Show more
  • In the original key, follows piano line pretty exa... Show more
  • This specific tab is based off this cover (https:/... Show more
  • This version was made by Kangho Lee.

Interactive

7,150 views 48 this week
no commentswrite comment
1 2 3 4 5
x 18
add to favorites
×
Save as Personal and add changes to this tab that will be seen only by you. Learn more ›
×
You can save this tab as Personal to edit and correct it or add notes. All changes will be seen only by you. Learn more »
launch autoscroll
font size
0
reset
how to read this tab
guitar tuner
edit
Autoscroll
slow
fast
+/-
esc
set tempo
stop
Author
Difficulty
[Intro] x4
e|-------------------|
B|-------------------|
G|---------0--0------|
D|------0--------3--0|
A|---1---------------|
E|3------------------|

[Verse 1]
City of stars...
Gm
e|-------------------|
B|-------------------|
G|---------0--0------|
D|------0--------3--0|
A|---1---------------|
E|3------------------|

Are you shining just for me?
C
e|-------------------|
B|---------1--1------|
G|------0--------3--0|
D|---2---------------|
A|3------------------|
E|-------------------|

F6
e|-------------------|
B|---------3--3------|
G|------2--------2---|    x2
D|0--3--------------3|
A|-------------------|
E|-------------------|

City of stars...
Gm
e|-------------------|
B|-------------------|
G|---------0--0------|
D|------0--------3--0|
A|---1---------------|
E|3------------------|

There's so much that i can`t see
C
e|-------------------|
B|---------1--1------|
G|------0--------3--0|
D|---2---------------|
A|3------------------|
E|-------------------|

F
e|---------1--1------|
B|------1--------1---|
G|---2--------------2|
D|3------------------|
A|-------------------|
E|-------------------|

Am
e|---------1---------|
B|------1------------|
G|---2---------------|
D|1------------------|
A|-------------------|
E|-------------------|

Who knows?
Gm
e|-------------------|
B|-------------------|
G|---------0--0------|
D|------0--------3--0|
A|---1---------------|
E|3------------------|

I felt it from the first...
C
e|-------------------|
B|---------1--1------|
G|------0--------3--0|
D|---2---------------|
A|3------------------|
E|-------------------|

...embrace I shared with you

F
e|---------1--1------|
B|------1--------1---|
G|---2--------------2|
D|3------------------|
A|-------------------|
E|-------------------|

Am
e|---------1---------|
B|------1------------|
G|---2---------------|
D|1------------------|
A|-------------------|
E|-------------------|

That now our…
Gm
e|-------------------|
B|-------------------|
G|---------0---------|
D|------0------------|
A|---1---------------|
E|3------------------|

...dreams

A7
e|----------0--------|
B|-------2-----------|
G|---0---------------|
D|2------------------|
A|-------------------|
E|-------------------|

They`ve finally come true
F6
e|-------------------|
B|---------3--3------|
G|------2--------2---|    x2
D|0--3--------------3|
A|-------------------|
E|-------------------|

[Verse 2]
(repeat verse 1)
Gm
City of stars
                         F
Just one thing everybody wants
Gm                 C
There in the bars
                                   F             Am
And through the smokescreen of the crowded restaurants
     Gm    C
It's love
                             F         Am       Dm
Yes, all we're looking for is love from someone else

[Bridge]
A rush // a touch
Gm
e|-------------------|
B|-------------------|
G|---------0---------|
D|------0------------|
A|---1---------------|
E|3------------------|

A glance // a dance
A7
e|----------0--------|
B|-------2-----------|
G|---0---------------|
D|2------------------|
A|-------------------|
E|-------------------|

To look in somebody`s…
Bb
e|3------------------|
B|3------------------|
G|3------------------|
D|3------------------|
A|1------------------|
E|-------------------|

...eyes to light up the…
C
e|5------------------|
B|5------------------|
G|5------------------|
D|5------------------|
A|3------------------|
E|-------------------|

...skies to open the…
A7
e|0------------------|
B|2------------------|
G|0------------------|
D|2------------------|
A|-------------------|
E|-------------------|

...world and send them reeling…
Dm
e|1------------------|
B|3------------------|
G|2------------------|
D|0------------------|
A|-------------------|
E|-------------------|

A voice that says i`ll be...
Bb
e|3------------------|
B|3------------------|
G|3------------------|
D|3------------------|
A|1------------------|
E|-------------------|

...here and you`ll be...
C
e|5------------------|
B|5------------------|
G|5------------------|
D|5------------------|
A|3------------------|
E|-------------------|

...alright
Dm
e|1------------------|
B|3------------------|
G|2------------------|
D|0------------------|
A|-------------------|
E|-------------------|

A rat-tat-tat on my…
Bb
e|3------------------|
B|3------------------|
G|3------------------|
D|3------------------|
A|1------------------|
E|-------------------|

...heart
A7
e|0------------------|
B|2------------------|
G|0------------------|
D|2------------------|
A|-------------------|
E|-------------------|

Think i want it to stay
F6
e|-------------------|
B|---------3--3------|
G|------2--------2---|    x2
D|0--3--------------3|
A|-------------------|
E|-------------------|

[Ending]
Gm          C
City of stars
                          F6
Are you shining just for me?

Gm          A7
City of stars
                          F6
You never shined so brightly

            
            
Suggest correction
Creating personal tab
Creating personal tab
You can edit any tab online and save it as your Personal.

You can edit, replace or remove any tab part or add personal notes – all changes will be seen only by you.

Personal tabs can be accessed anytime from any device, even offline.
Learn more »
comments
print report bad tab
guest
You may want to rate the tab now too:
select rating
Wanna post a correction for this tab? Suggest correction