Oops, an error
Loading. Please wait.

La La Land - City Of Stars tab

version 3
version 3

Whole song

  • This is a really accurate tab from the La La Land ... Show more
  • In the original key, follows piano line pretty exa... Show more
  • This specific tab is based off this cover (https:/... Show more
  • This version was made by Kangho Lee.

Interactive

11,191 views 93 this week
1 commentread comment
1 2 3 4 5
x 13
add to favorites
×
Save as Personal and add changes to this tab that will be seen only by you. Learn more ›
×
You can save this tab as Personal to edit and correct it or add notes. All changes will be seen only by you. Learn more »
launch autoscroll
font size
0
reset
how to read this tab
guitar tuner
edit
Autoscroll
slow
fast
+/-
esc
set tempo
stop
Tuning: standard
Capo: none


[Intro]
e|--------0---5---0-|--------0---5---0-|------------------|---0---5---0-----|
B|------1-----------|------1-1---5---1-|------1-----1-----|-1-1---5---1---1-|
G|----2-------------|----2-------------|----2---2---------|-2-------2-----2-|
D|------------------|------------------|------2---2-------|-----------------|
A|-0--------0---0---|-0--------0---0---|-0------------3-0-|-----0-------0---|
E|------------------|------------------|------------------|-----------------|

[Verse]
e|--------0---3---0-|-2--2-----2-2-|----3--2-3--7---|-3--2-3--7---7-8-7-|
B|------1-----------|------1-------|----0---------0-|------0------------|
G|----2-------------|----2---------|----------------|-------------------|
D|------------------|-0------0---0-|-2-------2------|-2-----------------|
A|-0--------0---0---|--------------|----------------|-----------7-------|
E|------------------|--------------|----------------|-------------------|

e|-5p0------3-0-|-2--2-----2---|---------------|-------2---------|
B|--------1-----|------1-------|----3----3-----|---3-------3-----|
G|------2-------|----2-------2-|----0----0-----|-----0---------0-|
D|--------------|-0------0-----|---------------|-----------------|
A|-0------------|--------------|---------------|-----------------|
E|--------------|--------------|-3-----3---3-0-|-3-------3---3---|

e|---------------|-------0-----0---|------------------|---------------|
B|----1-----1----|-----------------|------------------|-------0-------|
G|------2--------|-----5-------5---|------4-0-----4---|---0-------0---|
D|----2---2------|---4-------4-----|----0-------0-----|-----0-------0-|
A|-0----------3--|-5-------5-------|------------------|---------------|
E|---------------|---------------0-|-3--------2-----0-|-1-------1-----|

e|-----------------|-2----------------|----------0---|-------0-------|
B|-------1---1-----|-0----------------|----0---------|-0---------0---|
G|-------2---2-----|-2----------------|------0-------|---0---------0-|
D|-----2---------2-|-1----------------|------------2-|---------2-----|
A|-0-------------3-|-2----------------|--------------|---------------|
E|-----------------|------------------|-0--0---0-----|-0---0---------|
   1 + 2 + 3 + 4 +   single strum

[Verse]
e|----5-0----3----0-|-2--2-----2---|----3--2-3--7---|-3--2-3--7---7-8-7-|
B|----5-1----1----1-|------1-----1-|----0---------0-|------0------------|
G|--------2----2----|----2-------2-|----------------|-------------7-9-7-|
D|------------------|-0------0-----|-2-------2------|-2-----------------|
A|-0----------------|--------------|----------------|-----------7-------|
E|------------------|--------------|----------------|-------------------|

e|-5p0----3---0-|-3--3-----3-3-|----------------|-----------------|
B|--------1---1-|------1-------|----3---3-------|---3---------3---|
G|------2---2---|----2---------|----0---0-2p0---|-0---------0-----|
D|--------------|-0------0---0-|--------------4-|-------4---------|
A|-0------------|--------------|----------------|-----------------|
E|--------------|--------------|-3----3---------|-----------------|
                                                  1 + 2 + 3 + 4 +
e|---------------|----5p0---------|-------------------|------------------|
B|----1----------|----5----5---5--|-------------------|--------0---------|
G|------2--------|----------------|------4-0------4-0-|----0-------0---0-|
D|----2----------|----------------|----0--------0-----|------0-------0---|
A|-0------0--3-4-|-5--------5-----|-------------------|------------------|
E|---------------|--------------0-|-3--------2--------|-1--------1-------|

e|----------------|----------2-----|
B|-------1-----1--|--------0---0---|
G|---------2------|------2-------4-|
D|-----2----------|----1-----------|
A|-0---------3----|-2--------------|
E|----------------|----------------|
   1 + 2 + 3 + 4 +

[Chorus]
e|-0-0-0-0-|-2-2-2-2-|-2-2-2-2-|-3-3-3-3-|-0-0-0-0-|-2-2-2-2-|--------0---------|
B|-1-1-1-1-|-1-1-1-1-|-0-0-0-0-|-0-0-0-0-|-1-1-1-1-|-1-1-1-1-|----0-------0-----|
G|---------|---------|-2-2-2-2-|---------|---------|---------|------0-------0---|
D|---------|-0-0-0-0-|-1-1-1-1-|-2-2-2-2-|---------|-0-0-0-0-|----------2-----2-|
A|-3-3-3-3-|---------|---------|---------|-3-3-3-3-|---------|------------------|
E|---------|---------|---------|---------|---------|---------|-0-----------=----|

e|-------0-------|-0-0-0-0-|-2-2-2-5---|-2-2-2-2-|-3-3-3-3-|-0-0-0-0-|-2------------|
B|---0-------0---|-1-1-1-1-|-1-1-1---3-|-0-0-0-0-|-3-3-3-3-|-1-1-1-1-|-0------------|
G|-------------0-|---------|-----------|-2-2-2-2-|---------|---------|-2------------|
D|-----2---2-----|---------|-0-0-0-----|-1-1-1-1-|-2-2-2-2-|---------|-1------------|
A|---------------|-3-3-3-3-|-----------|---------|---------|-3-3-3-3-|-2------------|
E|-0-------------|---------|-----------|---------|---------|---------|--------------|

e|----------0-----|-------0-------|----------------------------------------------------|
B|----0-----------|-0---------0---|----------------------------------------------------|
G|------0---------|---0---------0-|----------------------------------------------------|
D|----2---2---2-2-|-----2---2-----|----------------------------------------------------|
A|----------------|---------------|----------------------------------------------------|
E|-0--------------|---------------|----------------------------------------------------|

[Outro]
e|--------0---3---0-|-2--2-----2---|--------------|--------2-------|
B|------1-----------|------1-----1-|----3---3-----|----3-------3---|
G|----2-------------|----2-------0-|----0-----4---|------0-------0-|
D|------------------|-0------0-----|--------------|----------------|
A|-0--------0---0---|--------------|--------------|----------------|
E|------------------|--------------|-3----3-----0-|-3--------3-----|

e|--------0---3-0-|-2--------------|-3--3-2-3-0---|----------12-|
B|------1---------|-0--------------|-0----------0-|-------0--12-|
G|----2-----------|-2--------------|-0------------|----0--------|
D|----------------|-1--------------|-2------------|-2-----------|
A|-0--------0-----|-2--------------|--------------|-------------|
E|----------------|----------------|--------------|-------------|
 
************************************

| p  Pull-off 

************************************

            
            
Suggest correction
Creating personal tab
Creating personal tab
You can edit any tab online and save it as your Personal.

You can edit, replace or remove any tab part or add personal notes – all changes will be seen only by you.

Personal tabs can be accessed anytime from any device, even offline.
Learn more »
comments
print report bad tab
1 comment total.
0 reply
fred.sorin 10 Aug 24, 2017 10:21 AM

This sounds great mate, thanks

guest
You may want to rate the tab now too:
select rating
Wanna post a correction for this tab? Suggest correction