Oops, an error
Loading. Please wait.

La La Land - Mia And Sebastians Theme tab

version 2
version 2

Whole song

  • Try to hold all notes as long as possible. Some st... Show more
  • This was tabbed by ear based on the piano version ... Show more

Interactive

22,582 views 231 this week
2 commentsread comments
1 2 3 4 5
x 12
add to favorites
×
Save as Personal and add changes to this tab that will be seen only by you. Learn more ›
×
You can save this tab as Personal to edit and correct it or add notes. All changes will be seen only by you. Learn more »
launch autoscroll
font size
0
reset
how to read this tab
guitar tuner
edit
Autoscroll
slow
fast
+/-
esc
set tempo
stop
About this tab version
Try to hold all notes as long as possible. Some stretching could be a little hard for beginners but it is worth a try. Listen to the song and you'll figure out the rhythm. Was this info helpful? Yes No
Mia & Sebastian's Theme - From 'La La Land' Soundtrack
Arrangement by Nick Engel (Noover2) based on the arrangement of
Huy Dao (https://www.youtube.com/watch?v=TS0GBd4d7bE)
Standard tuning & capo on 2nd fret

E--------------------------------------------------------------------------------------------
B----------------5----7---8---7---5------------------------5----7---8---7----5---------------
G-------4--------------------------------5------ -----5-----------------------------4--------
D-------5-------------4------------------5--5--(7)----5---------5-------5-----------5--4-----
A-----------------------------------------------------5-----------------------------------7--
E-------3--------------------------------5------------------------------------------3--------

                                                                                   1________ 2________________
E-----------------------------------------------------5--------------------------------------I----------------
B----------------5----7---8---7---5-------------------5----8---7---8----7----5---------------o---0--3--5--7--8
G-------4--------------------------------5------------------------------------------4--------I---0------------
D-------5-------------4---------------------5--7---------------5-------(4)----------5--4-----I------0--2--4--5
A-----------------------------------------------------5--------------------------------------o----------------
E-------3--------------------------------5------------------------------------------3--------I---3------------

E-------8--7-----5----7---5---------------------------7----5---3---5----3----2------0-------
B-------5--------5----------------8------5-----7------7--------------------------------0----
G-------5--------5--------------------------0---------0--------0--------0-----------------2-
D----------------------------------------0------------0-------------------------------------
A-------0---------------------------------------------------------------------------3-------
E-------------------------------------------------------------------------------------------

E-------8--7-----5----7---5---------------------------7------------------------
B-------5--------5----------------8------5-----7-------------------------------
G-------5--------5--------------------------0--------------------------------4-
D----------------------------------------0------------------------------5------
A-------0--------------------------------------------------5---6---7-----------
E-----------------------------------------------------3------------------------

E-------8--7-----5-----7---5-----------------------------------11--8----7--------------3--0----
B-------5--------5----------------8------7--------7---8----10--10------------10--8--7--7-----4-
G-------5--------5--------------------------7--9---------------------------------------0-------
D----------------------------------------0-----------------------------------------------------
A-------0--------------------------------------------------------------------------------------
E--------------------------------------------------------------7-----------------------0-------

E-------0--2--0--2--3-------------0--2--0--2---3------0--2--0--2--3--0--5------
B-------0-------------------------0-------------------2--2--2--2--2--2--5----5-
G-------------0-------------------------0------0------0-----0-----------6----8-
D-------------------2--------------------------2------------------2------------
A-------3-------------------------2-----2-------------1-----1------------------
E-----------------------------------------------------------------------5------

IMPROV FROM THE A TO AN E AND END WITH G
IF YOU CAN'T DO THE JAZZY STUFF, TRY THE BLUES SCALE (I LIKE IT)
OR
CONTINUE (IN G)

E---------------------------------------------------------------------------------------------
B----------------5----7---8---7---5------------------------5----7---8---7----5----------------
G-------4--------------------------------5------ -----5-------------------------------4-------
D-------5-------------4------------------5--5--(7)----5---------5-------5-------------5--4----
A-----------------------------------------------------5-------------------------------------7-
E-------3--------------------------------5--------------------------------------------3-------

E-----------------------------------------------------5---------------------------------------
B----------------5----7---8---7---5-------------------5----8---7---8----7----5----------------
G-------4--------------------------------5--------------------------------------------4--4--4-
D-------5-------------4---------------------5--7---------------5-------(4)------------4--4--5-
A-----------------------------------------------------5-------------------------------5--5--5-
E-------3--------------------------------5--------------------------------------------3--3--3-

            
            
Suggest correction
Creating personal tab
Creating personal tab
You can edit any tab online and save it as your Personal.

You can edit, replace or remove any tab part or add personal notes – all changes will be seen only by you.

Personal tabs can be accessed anytime from any device, even offline.
Learn more »
comments
print report bad tab
2 comments total.
+1 reply
dylanmuel 10 Feb 03, 2017 02:53 PM

I love this song and this tab is very good

guest
You may want to rate the tab now too:
select rating
Wanna post a correction for this tab? Suggest correction