Oops, an error
Loading. Please wait.

Laputa Castle In The Sky - Theme Acoustic tab

version 1
version 1

Whole song

63,763 views 165 this week
3 commentsread comments
1 2 3 4 5
x 12
add to favorites
×
Save as Personal and add changes to this tab that will be seen only by you. Learn more ›
×
You can save this tab as Personal to edit and correct it or add notes. All changes will be seen only by you. Learn more »
launch autoscroll
font size
0
reset
how to read this tab
guitar tuner
edit
Autoscroll
slow
fast
+/-
esc
set tempo
stop
Author
Difficulty
Unregistered
This is not a track from the "Laputa: Castle in the Sky" OST. This
is a variation on the main Laputa theme ("Kimi O Nosete") adapted for piano
and can be found on the "Piano Stories" album. 


[Intro]

e|--1-------|--0-------|------0-------|
B|--1--1-1--|--0--0-0--|--3-------1---|
G|--0-------|--2-------|--2-------0---|
D|----------|--3-------|--2-------3---|
A|----------|----------|--------------|
E|----------|----------|--------------|


[Melody]

e|------0---0-3----|----------0----|----------0----|--0------------|
B|--1-3----3----3--|----1--01---0--|---------------|----3-----3-3--|
G|-----------------|--0------------|--0-2--02---0--|-------22---4--|
D|-----------------|---------------|---------------|---------------|
A|-----------------|---------------|---------------|---------------|
E|-----------------|---------------|---------------|---------------|

e|------0---0-3----|----------0----|------0--0-1-30--|--0------------|
B|--1-3----3----3--|----1--01---0--|-------3---------|---3-1--3-0-1--|
G|-----------------|--0------------|--0-2------------|--2---------0--|
D|-----------------|---------------|-----------------|--------3---2--|
A|-----------------|---------------|-----------------|---------------|
E|-----------------|---------------|-----------------|---------------|


[Build-up]
 
e|--0-1-3--13-7-1--|----0--0-3-3--|----0--01-0-----|--5-3-1-0-3--|
B|-----------------|--0---3-------|--13--3-----00--|----------3--|
G|-----------------|--------------|----------------|-------------|
D|-----------------|--------------|----------------|-------------|
A|-----------------|--------------|----------------|-------------|
E|-----------------|--------------|----------------|-------------|


[Crescendo]

e|----8--7----------|--------------|----8--7----------|---------------|
B|--8-------8-------|----------12-8|--8-------8-------|---------------|
G|------------10-9--|--10-910------|------------10-9--|--10-910--7-5--|
D|------------------|--------------|------------------|---------------|
A|------------------|--------------|------------------|---------------|
E|------------------|--------------|------------------|---------------|


     e|----8—-7---------|--------7----|----8—-7---------|-------------|
     B|--8----0—-8-6-5--|--6-56—-0-8--|--8----0—-8-6-5--|--6-56—------|
 OR: G|--0-5-----0------|----------0--|--0-5-----0------|--------7-5--|
     D|------------3-2--|--3-23-------|------------3-2--|--3-23-------|
     A|-----------------|-------------|-----------------|-------------|
     E|-----------------|-------------|-----------------|-------------|


[Repeat Melody]

e|------0---0-3----|----------0----|----------0----|--0------------|
B|--1-3----3----3--|----1--01---0--|---------------|----3-----3-3--|
G|-----------------|--0------------|--0-2--02---0--|-------22---4--|
D|-----------------|------------3--|---------------|---------------|
A|-----------------|---------------|---------------|---------------|
E|-----------------|---------------|---------------|---------------|
 
e|------0---0-3----|----------0----|------0--0-1-30--|--0------------|
B|--1-3----3----3--|----1--01---0--|-------3---------|---3-1--3-0-1--|
G|-----------------|--0------------|--0-2------------|--2---------0--|
D|-----------------|------------3--|-----------------|--------3---2--|
A|-----------------|---------------|-----------------|---------------|
E|-----------------|---------------|-----------------|---------------|


[Outro]

e|-----------------|----------|----------8---------------8----------|
B|-----------------|----------|----8-6-8---8-6-8---8-6-8---8-6-8----|
G|------------0----|-----0----|--5---------------5---------------5--|
D|----0-2--02---0--|-0-----3--|-------------------------------------|
A|--3--------------|---0------|-------------------------------------|
E|-----------------|----------|-------------------------------------|

                             e|----3-1-3-8-3-1-3---3-1-3-8-3-1-3----|
                         OR: B|--1---------------1---------------1--|
                             G|-------------------------------------|
                             D|-------------------------------------|
                             A|-------------------------------------|
                             E|-------------------------------------|

            
            
Suggest correction
Creating personal tab
Creating personal tab
You can edit any tab online and save it as your Personal.

You can edit, replace or remove any tab part or add personal notes – all changes will be seen only by you.

Personal tabs can be accessed anytime from any device, even offline.
Learn more »
comments
print report bad tab
3 comments total.
0 reply
ajsmusicmadness 10 Nov 20, 2010 06:42 AM

I love this song but when I playd it, line 4 go's[-0-1-3-1-3-7-1].but I think it's better playd[-o-2-3-2-3-7-2].thanks

0 reply
henrykuhlmann 10 Aug 03, 2015 08:54 PM

. There is misuses of the high e open string in this tab that make parts of it very off key and wrong

0 reply
henrykuhlmann 10 Mar 05, 2016 08:27 PM

some high notes are off on the open e string

guest
Wanna post a correction for this tab? Suggest correction