Oops, an error
Loading. Please wait.

Last Of The Mohicans Theme Tab

version 2
version 2

Whole song

16,047 views 81 this week
1 commentread comment
1 2 3 4 5
excellent!
x 5
add to favorites
launch autoscroll
font size
0
reset
how to read this tab
guitar tuner
Tab Pro tools
  • play this tab
  • loop segment
  • change instrument
  • show fretboard
  • metronome
×
Best way to learn
"Last Of The Mohicans Theme"
Autoscroll
slow
fast
+/-
esc
set tempo
stop
Contributor
-----------------------------------------------------------------------------
                  Last of the Mohicans (acoustic version)
-----------------------------------------------------------------------------
Tabbed by: wildBILL010
Email: bbill010@gmail.com

Tuning:DADGBe

This tab is my immaculate version the one of the greatest movie theme songs. Enjoy. 

  Main part
|---------------------------------------------------------------------------|
|---------------------------------------------------------------------------|
|---------------------------------------------------------------------------|
|-5-----------4-2-------------2--5-4-7---------------5---9--------7--5------|
|-----2---2-------2---2---2--------------0---0---0-----5-----5--------------|
|-2-2---2---2-2---5-5---5---5------0---0---0---0---0-5-----5---5------------|

|---------------------------------------------------------------------------|
|---------------------------------------------------------------------------|
|---------------------------------------------------------------------------|
|-4---7-------4--2----------------------------------------------------------|
|---0-----0-----------2---2----2---2---2---2--------------------------------|
|-0---0-0---0-0--2--2---2---2----2---2---2---2------------------------------|

  Interlude 
|---------------------------------------------------------------------------|
|---------------------------------------------------------------------------|
|---------------------------------------------------------------------------|
|-5---4----2---------2---0--------------------------5----4----2-------------|
|---2---2-----2---2-----------2---2---2---------------2----2-----2---2------|
|-2--------2----2------2---0--5-5---5---5-----------2----2----2----2--------|

|---------------------------------------------------------------------------|
|---------------------------------------------------------------------------|
|---------------------------------------------------------------------------|
|-2---0----9--------5----7----9--------7----5----4---7--------4----2--------|
|------------5---5---------5----5---5--------------0---0---0----------------|
|---2---0--5---5------5-------5---5------5----5--0---0---0------0--2--------|


************************************
************************************
comments
print report bad tab
1 comment total.
0 reply
bat_venko1985 wrote on September 8 2015, 01:21 pm

sounds bad!

I want to post or [tab]
guest
You may want to rate the tab now too:
select rating
Please do not post tabs as comments. Select "correction" instead!