Oops, an error
Loading. Please wait.

Little Mermaid - Part Of Your World Tab

version 2
version 2

Whole song

9,081 views 51 this week
3 commentsread comments
1 2 3 4 5
excellent!
x 6
add to favorites
launch autoscroll
font size
0
reset
how to read this tab
guitar tuner
Tab Pro tools
  • play this tab
  • loop segment
  • change instrument
  • show fretboard
  • metronome
×
Best way to learn
"Little Mermaid - Part Of Your World"
Autoscroll
slow
fast
+/-
esc
set tempo
stop
Contributor
Difficulty
novice

e|-1-1-1-1--3-5----------------------1--------1--3---1-1-0-1-3-5-------------|
B|---------------1-1-1----1-1-1-1--3-----1--3---------------------1----------|
G|---------------------------------------------------------------------------|
D|---------------------------------------------------------------------------|
A|---------------------------------------------------------------------------|
E|---------------------------------------------------------------------------|
            ring out 
e|-------1--3---------0--1--3--5---1--3--5--5---1--3--5---8--6--6--5---8--6--|
B|-1--3----------------------------------------------------------------------|
G|---------------------------------------------------------------------------|
D|---------------------------------------------------------------------------|
A|---------------------------------------------------------------------------|
E|---------------------------------------------------------------------------|
                                      ring out 
e|-6--5--1------6--5--1---------1--0--1---------1-3-5-5---1-3-5-5---1-3-5--8-|
B|----------1------------1---1-----------------------------------------------|
G|---------------------------------------------------------------------------|
D|---------------------------------------------------------------------------|
A|---------------------------------------------------------------------------|
E|---------------------------------------------------------------------------|
                ring out        ring out          ring out    
e|-6--6--5---8--6---------6--5--1------------6--5--1-------------------------|
B|---------------------------------1------------------1----------------------|
G|---------------------------------------------------------------------------|
D|---------------------------------------------------------------------------|
A|---------------------------------------------------------------------------|
E|---------------------------------------------------------------------------|
            ring out 
e|----1--0--1----------------------------------------------------------------|
B|-1-------------------------------------------------------------------------|
G|---------------------------------------------------------------------------|
D|---------------------------------------------------------------------------|
A|---------------------------------------------------------------------------|
E|---------------------------------------------------------------------------|
comments
print report bad tab
3 comments total.
0 reply
MyDayGreenDay wrote on June 16 2014, 07:49 am

Great TAB! Except you forgot the intro!

I made this

e|-1-1-1-1--0-1-3-3---1-1-1-1--0-1-0-1-3-3----0-1-3-3-1-3-1---1-3-5--5-3-3---|
B|---------------------------------------------------------------------------|
G|---------------------------------------------------------------------------|
D|---------------------------------------------------------------------------|
A|---------------------------------------------------------------------------|
E|---------------------------------------------------------------------------|

0 reply
MyDayGreenDay wrote on June 16 2014, 07:57 am

Great TAB! Except you forgot the intro!I made this
e|-1-1-1-1--0-1-3-3---1-1-1-1--0-1-0-1-3-3----0-1-3-3-1-3-1---(1)-1-3-5--5-3-3-|

0 reply
MyDayGreenDay wrote on June 16 2014, 08:30 am

I also made this
"You want a thingamabob"
e|-1-3-5-5-5-5-3-1-0----------1-3-5-5-5-5-3-5--------------------------------|
B|--------------------1------------------------3-----------------------------|
G|---------------------------------------------------------------------------|
D|---------------------------------------------------------------------------|
A|---------------------------------------------------------------------------|
E|---------------------------------------------------------------------------|

e|-1-3-5---1-3-5-------------------------------------------------------------|
B|----------------3--6--8----------------------------------------------------|
G|---------------------------------------------------------------------------|
D|---------------------------------------------------------------------------|
A|---------------------------------------------------------------------------|
E|---------------------------------------------------------------------------|

now i'm done ;)

I want to post or [tab]
guest
You may want to rate the tab now too:
select rating
Please do not post tabs as comments. Select "correction" instead!