Oops, an error
Loading. Please wait.

Live Freaky Die Freaky - Your Blood Will Set You Free Tab

242 views 1 this week
2 commentsread comments
1 2 3 4 5
1 last vote to show rating
add to favorites
launch autoscroll
font size
0
reset
how to read this tab
guitar tuner
Autoscroll
slow
fast
+/-
esc
set tempo
stop
Help us to improve Ultimate-Guitar.com Take our survey!
×
Author
Difficulty
Tuning: standard (eadgbe)
This is taken from John Roeker's new film, Live Freaky, Die Freaky.
And problems, e-mail me at g.ellerby@tesco.net

Intro
e ||--------------------------------------------------------------|
b ||--------------------------------------------------------------|
g ||----7--7-----5--5----7--7----10--10---7--7--7--7----5--7------|
d ||----7--7-----5--5----7--7----10--10---7--7--7--7----5--7------| x2
a ||----5--5-----3--3----5--5----8----8---5--5--5--5----3--5------|
e ||--------------------------------------------------------------|

Verse
e ||--------------------------------------------||
b ||--------------------------------------------||
g ||----2-2-2-2-2-2-2-2----7--7--7--10--5--7----||
d ||----2-2-2-2-2-2-2-2----7--7--7--10--5--7----|| x4
a ||----0-0-0-0-0-0-0-0----5--5--5--8---3--5----||
e ||--------------------------------------------||

Pre-chorus
e ||-----------------------------------||
b ||-----------------------------------||
g ||-----------------------------------||
d ||----5-------7------6-------7-------||
a ||----5-------7------6-------7-------|| This is the 'all we really wanna
e ||----3--x8--5-x8--4-x8---5 let ring-|| do' part

Chorus
e ||-------------------------------------------------------------|
b ||-------------------------------------------------------------|
g ||----7--7-----5--5----7--7----10--10---7--7--7--7----5--7-----|
d ||----7--7-----5--5----7--7----10--10---7--7--7--7----5--7-----| x2
a ||----5--5-----3--3----5--5----8----8----5--5--5--5----3--5----|
e ||-------------------------------------------------------------|

Verse 2
e ||------------------------------------------------||
b ||------------------------------------------------||
g ||----2-2-2-2-2-2-2-2----7--7--7--10--5--7--------||
d ||----2-2-2-2-2-2-2-2----7--7--7--10--5--7--------|| x4
a ||----0-0-0-0-0-0-0-0----5--5--5--8---3--5--------||
e ||------------------------------------------------||

Pre-chorus
e ||------------------------------------||
b ||------------------------------------||
g ||------------------------------------||
d ||----5-------7------6-------7--------||
a ||----5-------7------6-------7--------||  
e ||----3--x8--5-x8--4-x8---5 let ring--|| 

Chorus
e ||------------------------------------------------------------| x4 This
b ||------------------------------------------------------------| Time, play
g ||----7--7-----5--5----7--7----10--10---7--7--7--7----5--7----|chorus
d ||----7--7-----5--5----7--7----10--10---7--7--7--7----5--7----| twice
a ||----5--5-----3--3----5--5----8----8----5--5--5--5----3--5---| 
e ||------------------------------------------------------------|

This isn't 100% right
Bridge

e ||-----------s3--2--3---------2--3--2--0----s2--3--2--0-----2--3--2----|
b ||--1--1--1------------3--3--3-----------------------------------------|
g ||---------------------------------------------------------------------|
d ||---------------------------------------------------------------------|
a ||---------------------------------------------------------------------| 
e ||--------0------------------------------------------------------------|

e ||----------s3--2--3----------2--3--2--0------s2--3--2--0---3--2--2----|
b ||--1--1--1-------------3--3--3----------------------------------------|
g ||---------------------------------------------------------------------|
d ||---------------------------------------------------------------------|
a ||---------------------------------------------------------------------| 
e ||---------------------------------------------------------------------|

e ||--------------s3--2--3--------------2--3--2--0--(let ring)----|
b ||----1--1--1---------------3--3--3-----------------------------|
g ||--------------------------------------------------------------|
d ||--------------------------------------------------------------|
a ||--------------------------------------------------------------|
e ||--------------------------------------------------------------|

Verse 3
e ||------------------------------------------------||
b ||------------------------------------------------||
g ||----2-2-2-2-2-2-2-2----7--7--7--10--5--7--------||
d ||----2-2-2-2-2-2-2-2----7--7--7--10--5--7--------|| x4
a ||----0-0-0-0-0-0-0-0----5--5--5--8--3--5---------||
e ||------------------------------------------------||

Pre-chorus
e ||------------------------------------||
b ||------------------------------------||
g ||------------------------------------||
d ||----5-------7------6-------7--------||
a ||----5-------7------6-------7--------|| 
e ||----3--x8--5-x8--4-x8---5 let ring--||

Chorus
e ||------------------------------------------------------------|
b ||------------------------------------------------------------|
g ||----7--7-----5--5----7--7----10--10---7--7--7--7----5--7----|
d ||----7--7-----5--5----7--7----10--10---7--7--7--7----5--7----| x4
g ||----5--5-----3--3----5--5----8----8---5--5--5--5----3--5----|
e ||------------------------------------------------------------|

Tabbed by George
Suggest correction
Give kudos to tab author, rate the tab!
1 2 3 4 5
comments
print report bad tab
2 comments total.
0 reply
prettyvacant 10 Jun 23, 2006 07:21 AM

Hey! You did a great job on this tab! I'm glad someone has done it. I love the song too!

0 reply
Minty.Freak 58 Aug 07, 2006 06:06 PM

this song is ****in awesome!
its beautifully creepy.
great tab.

guest
You may want to rate the tab now too:
select rating
Wanna post a correction for this tab? Suggest correction