Oops, an error
Loading. Please wait.

Lord Of The Rings - Shire Theme Tab

version 1
version 1

Whole song

Interactive

54,577 views 303 this week
7 commentsread comments
1 2 3 4 5
x 64
add to favorites
launch autoscroll
font size
0
reset
how to read this tab
guitar tuner
Autoscroll
slow
fast
+/-
esc
set tempo
stop
Help us to improve Ultimate-Guitar.com Take our survey!
×
Author
Difficulty
novice
[main theme]

e|---------------------------------------------3--2--------------------------|
B|-------------3-------------------------3--5--------3-----------------------|
G|----0--2--4-----4--2--4--2--0-------4-----------------4--5--4--2-----------|
D|---------------------------------------------------------------------------|
A|---------------------------------------------------------------------------|
E|---------------------------------------------------------------------------|

e|---------------------------------------------------------------------------|
B|-------------3-------------------------3--5--3-----------------------------|
G|----0--2--4-----4--2--4--2--0-------4-----------4--5--4--2----0------------|
D|---------------------------------------------------------------------------|
A|---------------------------------------------------------------------------|
E|---------------------------------------------------------------------------|

First tab, it's pretty simple, enjoy.
Suggest correction
comments
print report bad tab
7 comments total. Showing first comments.
+10 reply
Tommygun666 10 Mar 31, 2012 05:17 AM

First thanks for your nice tabs, it sounds better than all the others on this website! i think that there is only one little mistake:
e------------------------------
B-------------3----------------
G---0--2--4------4--2--0-------
D------------------------------
A------------------------------
E------------------------------
and the rest sounds very correct =)

+1 reply
StampyStarkid 11 Feb 11, 2015 04:40 AM

AWESOME TAB!!!!!!!!!!!!!!

+1 reply
carter_fuzz 10 May 16, 2015 12:28 PM

I feel like maybe this is better for the first part:
e------------------------------
B-------------3----------------
G---0--2--4------4--2--2-0-----
D------------------------------
A------------------------------
E------------------------------

guest
You may want to rate the tab now too:
select rating
Wanna post a correction for this tab? Suggest correction