Oops, an error
Loading. Please wait.

Lord Of The Rings - The Bridge Of Khazad-Dum Tab

25,043 views 60 this week
2 commentsread comments
1 2 3 4 5
x 18
add to favorites
launch autoscroll
font size
0
reset
how to read this tab
guitar tuner
Autoscroll
slow
fast
+/-
esc
set tempo
stop
Help us to improve Ultimate-Guitar.com Take our survey!
×
Lord of the Rings- The Fellowship of the Ring Soundtrack
The Bridge of Khazad-Dum
Tabbed by:quesadilla1118
Email:caseymsims@gmail.com
Tuning:EADGBE (standard)

e|---------------------------------------------------------------------------|
B|---------------------------------------------------------------------------|
G|----------------0-2-3--2-0-----0-2-0---------------------0-2-3----2--3-3/5-|
D|--0--------0---------------3-----------3~-2-0--------0---------------------|
A|-----3~-33-------------------------------------3~-33-----------------------|
E|---------------------------------------------------------------------------|

e|---------------------------------------------------------------------------|
B|---3--5--5/7~--------------------------------------------------------------|
G|---------------------------------------------------------------------------|
D|---------------------------------------------------------------------------|
A|---------------------------------------------------------------------------|
E|---------------------------------------------------------------------------|

************************************

| /  Slide up
| ~  Vibrato

************************************
Suggest correction
comments
print report bad tab
2 comments total.
+2 reply
Websy 10 Dec 22, 2011 10:08 PM

 e|---------------------------------------------------------------------------|
B|---------------------------------------------------------------------------|
G|----------------0-2-3--2-0-----0-2-0---------------------0-2-3--2-3-5--3/5-|
D|--0--------0---------------3-----------3~-2-0--------0---------------------|
A|-----3~-33-------------------------------------3~-33-----------------------|
E|---------------------------------------------------------------------------|

e|---------------------------------------------------------------------------|
B|---3--5--5/7~--------------------------------------------------------------|
G|---------------------------------------------------------------------------|
D|---------------------------------------------------------------------------|
A|---------------------------------------------------------------------------|
E|---------------------------------------------------------------------------|

+1 reply
hurricaneherman 2,230 Jan 04, 2012 02:00 PM

this is perfect except for the last open G, you could just take that out.

guest
You may want to rate the tab now too:
select rating
Wanna post a correction for this tab? Suggest correction