Oops, an error
Loading. Please wait.

Lord Of The Rings - The Shire Tab

version 1
version 1

Whole song

Interactive

85,685 views 93 this week
7 commentsread comments
1 2 3 4 5
accurate
x 32
add to favorites
launch autoscroll
font size
0
reset
how to read this tab
guitar tuner
Tab Pro tools
  • play this tab
  • loop segment
  • change instrument
  • show fretboard
  • metronome
×
Best way to learn
"Lord Of The Rings - The Shire"
Autoscroll
slow
fast
+/-
esc
set tempo
stop
Difficulty
novice
-------------------------------------------------------------------------------
Lord of the rings “The Shire”- Misc. Soundtrack
-------------------------------------------------------------------------------
Tabbed by: J to the ROC
E-mail: j-roy@hotmail.com
Tuning:EADGBe
Part 1
e|--------------------------------------------------------------------------|
B|---------------------3--------6---------3---------------------------------|
G|-----3-------5----------------------------------5--------3----------------|
D|--------------------------------------------------------------------------|
A|--------------------------------------------------------------------------|
E|--------------------------------------------------------------------------|

e|--------------------------3--------6---------3----------------------------|
B|-----3--------6-----------------------------------------6---------3-------|
G|--------------------------------------------------------------------------|
D|--------------------------------------------------------------------------|
A|--------------------------------------------------------------------------|
E|--------------------------------------------------------------------------|

e|--------------------------------------------------------------------------|
B|----4p3-------------------------------------------------------------------|
G|---------------5----------------------------------------------------------|
D|--------------------------------------------------------------------------|
A|--------------------------------------------------------------------------|
E|--------------------------------------------------------------------------|

Part 2
e|--------------------------------------------------------------------------|
B|------------------------3--------6--------3-------------------------------|
G|-------3------5--------------------------------------5----------3h5p3-----|
D|--------------------------------------------------------------------------|
A|--------------------------------------------------------------------------|
E|--------------------------------------------------------------------------|

e|----------------------------3---------------------------------------------|
B|-------3--------6--------------------6---------3----------1---------------|
G|--------------------------------------------------------------------------|
D|--------------------------------------------------------------------------|
A|--------------------------------------------------------------------------|
E|--------------------------------------------------------------------------|

repeat part 1 and so on

| h  hammer-on
| p  pull-off
=============================================================================
comments
print report bad tab
7 comments total. Showing first comments.
-1 reply
pieman4567 wrote on March 13 2007, 04:17 pm

dude... im sorry...way off.. not enough pull offs and bends or hammer ons... this is just a basic version of the song... but you did get the tune right.... my version of the song is comin in about like 2 weeks so keep a look out

0 reply
Warheart1188 wrote on June 23 2009, 03:27 pm

Def. off. The main melody is wrong in a few spots

-1 reply
yoyo2850 wrote on May 21 2010, 09:11 am

try
e|---------------------
b|--------------------0-3-2-
g|-------2-----------2-----0
d|-0-2-4--4-2-0---0-4-------4--4-5-2
a|--------
e|--------

e|---------------------
b|--------------------0-3-2-
g|-------2-----------2-----0
d|-0-2-4--4-2-0---0-4-------4--2--0
a|--------
e|--------

its really nice

I want to post or [tab]
guest
You may want to rate the tab now too:
select rating
Please do not post tabs as comments. Select "correction" instead!